Oops, an error
Loading. Please wait.

Same Old Situation Bass Tab

version 1
version 1

Whole song

Interactive

3,791 views 1 this week
2 commentsread comments
1 2 3 4 5
please rate
add to favorites
launch autoscroll
font size
0
reset
guitar tuner
Autoscroll
slow
fast
+/-
esc
set tempo
stop
Help us to improve Ultimate-Guitar.com Take our survey!
×
same old situation
motley crue
tabbed by saturns_bassman

Intro
G|-----------|-----------|-----------|-----------|------------------|
D|-----------|-----------|-----------|-----------|------------------|
A|-----------|-----------|-----------|-----------|------------------|
E|----4-5----|----4-5----|----4-5----|----4-5----|------------------|

G|----------------------------|-------------------------------------------|
D|----------------------------|-------------------------------------------|
A|----------------------------|-------------------------------------------|
E|-4-5---5-5---7-3---3-3--(x2)|----4-5-5-5-5-5--7-3-3-3-3-3---------(x2)--|

G|------------------------------------------------------------------|
D|------------------------------------------------------------------| (x1)
A|---------------5-3-2-1--------------------------------------------|
E|-4-5--5-5---------------------------------------------------------|

Chorus (x2)
G|------------------------------------------------------------------|
D|------------------------------------------------------------------|
A|-----------------3-3-5-7--0-3-3-5-7-------------------------------|
E|-5-5---5-5----7---------------------------------------------------|


G|------------------------------------------------------------------|
D|------------------------------------------------------------------|
A|---------------------------------5-3-2-1--------------------------|
E|-7-7-7-7-7-7-7-7-7-7-7-7-7-7--------------------------------------|

G|-----------|-----------|------------------------------------------|
D|-----------|-----------|------------------------------------------|
A|-----------|-----------|------------------------------------------|
E|----4-5----|----4-5----|------------------------------------------|

G|----------------------------|-------------------------------------------|
D|----------------------------|-------------------------------------------|
A|----------------------------|-------------------------------------------|
E|-4-5---5-5---7-3---3-3--(x1)|----4-5-5-5-5-5--7-3-3-3-3-3---------(x1)--|

G|------------------------------------------------------------------|
D|------------------------------------------------------------------| (x1)
A|---------------5-3-2-1--------------------------------------------|
E|-4-5--5-5---------------------------------------------------------|

Chorus (x4)           
G|------------------------------------------------------------------|
D|------------------------------------------------------------------|
A|-----------------3-3-5-7--0-3-3-5-7-------------------------------|
E|-5-5---5-5----7---------------------------------------------------|

G|------------------------------------------------------------------|
D|------------------------------------------------------------------|
A|---------------------------------5-3-2-1-----------------5-5------|
E|-7-7-7-7-7-7-7-7-7-7-7-7-7-7--------------------------------------|

Bridge: (x1)
G|-----------|-----------|-----------|----------------------------------|
D|-----------|-----------|-----------|-9-7--7---------------------------|
A|-----------|-----------|-----------|-----9-9-8-7-6---9-7--7-----------|
E|----4-5----|----4-5----|----4-5----|---------------------9-9-8-7-6----|
Guitar solo:
G|----------------------------------------------------------------------|
D|------------------------------------3-3-5-5-6-6-7-7--3-3-5-5-6-6-7-7--| (x2) 
A|--3-3-5-5-6-6-7-7--3-3-5-5-6-6-7-7------------------------------------|
E|----------------------------------------------------------------------|
the second time u play this is slightly different

G|------------------------------------------------------------------|
D|------------------------------------------------------------------|
A|---------------------------------5-3-2-1-----------------5-5------|
E|-7-7-7-7-7-7-7-7-7-7-7-7-7-7--------------------------------------|

Drum solo
G|----------------------------|-----------------------------|
D|----------------------------|-----------------------------|
A|----------------------------|---5-------5-3-2-1-----------|
E|-4-5---5-5---7-3---3-3--(x2)|--5--------------------------|


Chorus
G|------------------------------------------|-----------------------------|
D|------------------------------------------|-----------------------------|
A|-----------------3-3-5-7--0-3-3-5-7--(x3)-|-3-3-5-7--0-3-3-5-7----------|
E|-5-5---5-5----7---------------------------|-----------------------------|
Suggest correction
Give kudos to tab author, rate the tab!
1 2 3 4 5
comments
print report bad tab
2 comments total.
0 reply
Samu3l 10 wrote on December 16 2009, 11:12 am

wrong.....

0 reply
kellynickels 3,013 wrote on February 26 2016, 10:09 am

didn't like this contribution

guest
You may want to rate the tab now too:
select rating
Please do not post tabs as comments. Select "correction" instead!