Oops, an error
Loading. Please wait.

Same Old Situation Bass Tab

version 2
version 2

Whole song

Interactive

11,938 views 12 this week
2 commentsread comments
1 2 3 4 5
x 4
add to favorites
launch autoscroll
font size
0
reset
guitar tuner
Autoscroll
slow
fast
+/-
esc
set tempo
stop
Help us to improve Ultimate-Guitar.com Take our survey!
×
Author
Difficulty
intermediate
----------------------------------------------------------------------------
		         Same Old Situation - Motley Crue
----------------------------------------------------------------------------

Tabbed By : Nico Drudge
e-mail: masterbasser95@hotmail.com

Tuning: DADG

Intro
G|--------------|
D|--------------|
A|--------------|
D|-5-5~----5-5~-|

Verse Part 1
G|------------------------------------------|
D|------------------------------------------|
A|------------------------------------------|
D|-5--5-5--5-0--0-0--0-5--5-5--5-0--0-0--0--|

Verse Part 2
G|------------------------------------------------------------------|
D|------------------------------------------------------------------|
A|------------------------------------------------------------------|
D|-5-5-5-5-5-5-5-5-5-5-5-5-5-5-5-5-0-0-0-0-0-0-0-0-0-0-0-0-0-0-0-0--|

Pre/Post-Chorus
G|-------------------------------------------------------------|
D|-------------------------------------------------------------|
A|-3--3-3-3-3-3-3--3--3-3-3-3-2-1-0--0-0-0-0-0-0-0--0--0--0-0--|
D|-------------------------------------------------------------|

Chorus
G|----------------------------------------------------------|
D|----------------------------------------------------------|
A|-------------------------------------2--3--2-----2--3--2--|
D|-5-5-5-5-5-5-5-5-5-5-5-5-5-5-5-5-0-0---------0-0----------|

Before Guitar Solo
G|-------------------------12-10--10----------------------------|
D|------------------------------12--12-11-10-8-10-8--8----------|
A|-------------------------------------------------10-10-9-8-6--|
D|-5-5~----5-5~----5-5~-----------------------------------------|

Guitar Solo
G|-------------------------------------------------------------------|
D|--------------------------------------4-4-5-5-6-7-----4-4-5-5-6-7--|
A|-----2-2-3-3-4-5-----2-2-3-3-4-5--5-5-------------5-5--------------|
D|-5-5-------------5-5-----------------------------------------------|

G|-------------------------------------------------------4-4-5-5-6-7--|
D|--------------------------------------4-4-5-5-6-7--5-5--------------|
A|-----2-2-3-3-4-5-----2-2-3-3-4-5--5-5-------------------------------|
D|-5-5-------------5-5------------------------------------------------|

G|---------------------------------------------------------------|
D|---------------------------------------------------------------|
A|-3--3-3-3-3-3-3--3--3-3-3-3-2-1-0--0-0-0-0-0-0-0--0--0--0-0----|
D|------------------------------------------------------------5--|

Bridge
G|-----------------------------------------------|
D|-----------------------------------------------|
A|---------------------------5-5-5-5----5-5-5-5--| *2x*
D|-----5-5-5-5----5-5-5-5------------------------|


G|----------------------|
D|----------------------|
A|-3-3~-------3-2-1-0~--|
D|----------------------|

Outro
G|--------------|    |----|
D|--------------|*6x*|----|
A|-----2--3--2--|    |----|
D|-0-0----------|    |-5~-|


Order:
Intro 2x
Verse Part 1
Verse Part 2 2x
Pre-Chorus
Chorus
Post Chorus
Intro
Verse Part 1
Verse Part 2
Pre-Chorus
Chorus 2x
Post Chorus
Before Guitar Solo
Guitar Solo
Pause - Drum Solo
Bridge
Chorus 4x
Outro

| ~  let note ring
| /  slide up
| \  slide down
| h  hammer-on
| p  pull-off
| ~  vibrato
| +  harmonic
| x  Mute note
============================================================================
Suggest correction
comments
print report bad tab
2 comments total.
0 reply
kellynickels 3,014 Feb 26, 2016 10:09 AM

didn't like this contribution

0 reply
kellynickels 3,014 Feb 26, 2016 10:10 AM

Full down, not dropped!

guest
You may want to rate the tab now too:
select rating
Wanna post a correction for this tab? Suggest correction