Oops, an error
Loading. Please wait.

Smokin In The Boys Room Tab

version 1
version 1

Whole song

Interactive

66,583 views 48 this week
14 commentsread comments
1 2 3 4 5
excellent!
x 13
add to favorites
launch autoscroll
font size
0
reset
how to read this tab
guitar tuner
Tab Pro tools
  • play this tab
  • loop segment
  • change instrument
  • show fretboard
  • metronome
×
Best way to learn
"Smokin In The Boys Room"
Autoscroll
slow
fast
+/-
esc
set tempo
stop
smokin in the boys room
motley crue

drop d tuning- DGCFAD

b -bend
^ -let ring
/ -slide up
\ -slide down
PM -palm mute
ah- artificial harmonics

intro-x2                      last time only
D----------------------------|-----
G----------------------------|-----
C----------------------------|-----
F-8/9----8/9-----8/9----8/9^-|-8/9-
A-6/7----6/7-----6/7----6/7^-|-6/7-
D----------------------------|-----

verse
D---------------------------------------
G---------------------------------------
C---------------------------------------
F-8/9^----------------8/9^--------------
A-6/7^--9/10--9/10----6/7^---9/10--9/10-
D-------7/8---7/8------------7/8----7/8-

chorus- PM all, played pretty fast
D----------------------------------
G----------------------------------
C----------------------------------
F----------------------------------
A-7-7-9-9-7-7-9-9--7-7-9-9-7-7-9-9-
D-5-5-5-5-5-5-5-5--5-5-5-5-5-5-5-5-

Fill 1
  1/2   1/2       
D---------------
G---------------
C-5b------------
F-----7---------
A--------3b-----
D------------5^-

D------------------------------------------
G------------------------------------------
C------------------------------------------
F-9-9-11-11-9-9-11-11--9-9-11-11-9-9-11-11-
A-7-7--7-7--7-7--7-7---7-7--7--7-7-7--7--7-
D------------------------------------------

full,ah
D---------------
G---------------
C-9b^-----------
F-------5--5----
A-------------7-
D---------------

this ones played under the fill, so you dont really hear it
D------------------------------------------
G------------------------------------------
C------------------------------------------
F-9-9-11-11-9-9-11-11--9-9-11-11-9-9-11-11-
A-7-7--7-7--7-7--7-7---7-7--7--7-7-7--7--7-
D------------------------------------------

D-----------------------------------------------------------
G-----------------------------------------------------------
C-----------------------------------------------------------
F-----------------------------------------------------------
A-9-9-11-11-9-9-11-11--7-7-9-9-7-7-9-7--9-9-11-11-9-9-11--7-
D-7-7--7--7-7-7--7--7--5-5-5-5-5-5-5-5--7-7--7--7-7-7--7--5-

verse
D------------------------------
G------------------------------
C------------------------------
F-8/9----8/9---8/7----8/9^-----
A-6/7----6/7---6/7----6/7^-----
D----------------5-------------

D-----------------------------------
G-----------------------------------
C-----------------------------------
F---------------8/9^----------------
A-9/10---9/10---6/7^---9/10----9/10-
D-7/8----7/8-----------7/8-----7/8--

chorus- PM all, played pretty fast
D----------------------------------
G----------------------------------
C----------------------------------
F----------------------------------
A-7-7-9-9-7-7-9-7--7-7-9-7-7-7-9-7-
D-5-5-5-5-5-5-5-5--5-5-5-5-5-5-5-5-

Fill 2
  1/2     ah     
D----------------
G----------------
C----------5-----
F-------------7^-
A-3b----0--------
D----------------

D-------------------------------------
G-------------------------------------
C-------------------------------------
F-9-9-11-9-9-9-11-9-9-9-11-9-9-9-11-9-
A-7-7-7--7-7-7-7--7-7-7-7--7-7-7-7--7-
D-------------------------------------

         |-1/4-|
D----------------------
G----------------------
C----------------------
F--------5b-5b-5b------
A-----7-------------7^-
D----------------------

this ones played under the fill, so you dont really hear it
D----------------------------------
G----------------------------------
C----------------------------------
F----------------------------------
A-7-7-9-7-7-7-9-7--7-7-9-7-7-7-9-7-
D-5-5-5-5-5-5-5-5--5-5-5-5-5-5-5-5-

D-------------------------------------
G-------------------------------------
C-------------------------------------
F-------------------------------------
A-9-9-11-9-9-9-11-9-9-9-11-9-9-9-11-9-
D-7-7-7--7-7-7-7--7-7-7-7--7-7-7-7--7-

D-------------
G-------------
C-------------
F-8/9----8/9^-
A-6/7----6/7^-
D-------------

harmonica solo- chorus PM under it
D----------------------------------
G----------------------------------
C----------------------------------
F----------------------------------
A-7-7-9-9-7-7-9-7--7-7-9-7-7-7-9-7-
D-5-5-5-5-5-5-5-5--5-5-5-5-5-5-5-5-

D-------------------------------------
G-------------------------------------
C-------------------------------------
F-9-9-11-9-9-9-11-9-9-9-11-9-9-9-11-9-
A-7-7-7--7-7-7-7--7-7-7-7--7-7-7-7--7-
D-------------------------------------

D----------------------------------
G----------------------------------
C----------------------------------
F----------------------------------
A-7-7-9-7-7-7-9-7--7-7-9-7-7-7-9-7-
D-5-5-5-5-5-5-5-5--5-5-5-5-5-5-5-5-

D-------------------------------------
G-------------------------------------
C-------------------------------------
F-------------------------------------
A-9-9-11-9-9-9-11-9-9-9-11-9-9-9-11-9-
D-7-7-7--7-7-7-7--7-7-7-7--7-7-7-7--7-

guitar solo- chorus PM under it, 
parts of the harmonica solo are slipped in here and there
                                                          
                                            1/2     1/2           full    
D-----------------------------------------------------------------------------
G-----------------------------------------------------------------------------
C-4/6-----9\7------5/6-------------------------------12b-------12-14b-12------
F------7-------7---------7\5----------------5b------------14\-------------12/-
A------------------------------7-6-5-------------7/---------------------------
D--------------------------------------7-5------------------------------------

harmonica here 

D-------------------------------------------------------------------------------
G---------------------------------------------/16-16----------------------------
C-----14-14\12------12-14-------12-14/10-14/--/16-16-16\14------16\14-----14-16-
F-/14-----------14-----------13-----------------------------16---------16-------
A-------------------------------------------------------------------------------
D-------------------------------------------------------------------------------

harmonica somewhere around here

                  full
D--------------------------5---------------------------------------------------
G-/19/19/16--------8b--8------8-7-5-------5------------------------------------
C-------------16\--------------------8-7----8-7---5-----7-5--------------------
F----------------------------------------------------7-------7-5---------------
A------------------------------------------------------------------7-6-5-5-5-0-
D------------------------------------------------------------------------------

                                  ah      
             1/2             1/4 full 1/4   ah----|
D-------------------------------------------------------------------------------
G-7/8--8------8b----------------------------------------------------------------
C-----------------pick slide--12b-14b-12b-------------14-14\12------12-14-------
F-4/5--5-----------9/-14--------------------14---/14-------------13----------13-
A---------7/--------------------------------------------------------------------
D-------------------------------------------------------------------------------

                        f u l l   f u l l
D------------------------------------------
G---------13/14---------2--2--2---7--7--7--
C-12-14----------14\4---4b-4b-4b--9b-9b-9b-
F------------------------------------------
A------------------------------------------
D------------------------------------------

verse- x1
D---------------------------------------------------------
G---------------------------------------------------------
C---------------------------------------------------------
F-8/9-----8/9-----------------8/9----8/9----------------7-
A-6/7-----6/7----9/10--9/10---6/7----6/7---9/10--9/10---7-
D----------------7/8---7/8-----------------7/8---7/8----5-

chorus- PM, slower than the other chorus
D-------------------------------------
G-------------------------------------
C-------------------------------------
F-------------------------------------
A-9-9-11-11-9-9-11-9--7-7-9-9-7-7-9-7-
D-7-7-7--7--7-7-7--7--5-5-5-5-5-5-5-5-

                           "one more time..."  onto the outro         
D-------------------------------------------------
G-------------------------------------------------
C--------------------------------------9-11-12-13-
F---------------------7-----8/9--8/9---9-11-12-13-
A-9-9-11-11-9-9-11----7-----6/7--6/7---7--9-10-11-
D-7-7-7--7--7-7--7----5---------------------------

-break-

D-------------------------------------------------
G-------------------------------------------------
C--------------------------------------9-11-12-13-
F--------------------7------8/9--8/9---9-11-12-13-
A-7-7-9-9-7-7-9-7----7------6/7--6/7---7--9-10-11-
D-5-5-5-5-5-5-5-5----5----------------------------


outro and free time solo for two guitars, play the usuall chorus PM under this
until the the final slide

gtr 1 
    ah
    full   1/4 1/4  
D--------------------------------------------------------------------------
G----7b--------------------------------------------------------------------
C-----------5b-5b---5--------------------------------------12--------------
F-------------------------7----------14-13-12------------------14--14/-----
A------------------------------------------------14-13-12----------------7-
D------------------------------------------------------------------------5-

PM
D-------------------------------------
G-------------------------------------
C-------------------------------------
F-------------------------------------
A-9-9-11-11-9-9-11-9--7-7-9-9-7-7-9-7-
D-7-7-7--7--7-7-7--7--5-5-5-5-5-5-5-5-

gtr 1
D-----------------------------7\-
G-----------------------7-----7\-
C------------------7----------7\-
F------6------9---------------6\-
A-7---------------------------7\-
D--------------------------------

gtr 2
D---------------------------------------
G---------------------------------------
C---------------------------------------
F------------------------------------8/-
A-4-4-6-6-4-4-4-4-----9-9-9--9-9-9---6/-
D-2-2-2-2-2-2-2-2-----7-7-7--7-7-7------

questions email me- valkeyrie3@hotmail.com
comments
print report bad tab
14 comments total. Showing first comments.
0 reply
copperhead666 wrote on January 21 2006, 07:36 pm

great tab

0 reply
ibanez-gnr14 wrote on April 7 2006, 11:50 pm

Nice job on the solo

0 reply
Metallicam wrote on June 7 2006, 03:35 pm

Great tab, but that's not drop-d tuning for the record, it's tuned down 2 steps.

I want to post or [tab]
guest
You may want to rate the tab now too:
select rating
Please do not post tabs as comments. Select "correction" instead!