Oops, an error
Loading. Please wait.

No Name tab

version 1
version 1

Whole song

1,414 views 6 this week
2 commentsread comments
1 2 3 4 5
2 more votes to show rating
add to favorites
×
Save as Personal and add changes to this tab that will be seen only by you. Learn more ›
×
You can save this tab as Personal to edit and correct it or add notes. All changes will be seen only by you. Learn more »
launch autoscroll
font size
0
reset
how to read this tab
guitar tuner
edit
Autoscroll
slow
fast
+/-
esc
set tempo
stop
----------------------------------------------------------------------------
                             No Name – Motograter
----------------------------------------------------------------------------
Tabbed by: Shock J
Email: jrkurth@yahoo.com

Tuning: Drop A (A E A D F# B)

B |------------------------------------------------------------------------|
F#|------------------------------------------------------------------------|
D |------------------------------------------------------------------------|
A |--------------------------------1-0-6-0-1-0-00-01-0-6-0-1-0-0000--------|
E |--------------------------------1-0-6-0-1-0-00-01-0-6-0-1-0-0000--------|
A |1-0-6-0-1-0-----1-0-6-0-1-0-----1-0-6-0-1-0-00-01-0-6-0-1-0-0000--------|

B |------------------------------------------------------------------------|
F#|------------------------------------------------------------------------|
D |------------------------------------------------------------------------|
A |1-0-6-0-1-0-00-01-0-6-0-1-0---------------------------------------------|
E |1-0-6-0-1-0-00-01-0-6-0-1-0---------------------------------------------|
A |1-0-6-0-1-0-00-01-0-6-0-1-0---------------------------------------------|

B |------------------------------------------------------------------------|
F#|------------------------------------------------------------------------|
D |------------------------------------------------------------------------|
A |9--9--9--9--10---9--9--9--9--7---9--9--9--9--10---9--9--9--9--7---------|
E |------------------------------------------------------------------------|
A |------------------------------------------------------------------------|

B |------------------------------------------------------------------------|
F#|------------------------------------------------------------------------|
D |------------------------------------------------------------------------|
A |9--9--9--9--10---9--9--9--9--7---9--9--9--9--10---9--9--9--9--7---------|
E |------------------------------------------------------------------------|
A |------------------------------------------------------------------------|

B |------------------------------------------------------------------------|
F#|------------------------------------------------------------------------|
D |------------------------------------------------------------------------|
A |9--9--9--9--10---9--9--9--9--7---9--9--9--9--10---9--9--9--9--7---------|
E |------------------------------------------------------------------------|
A |------------------------------------------------------------------------|

B |------------------------------------------------------------------------|
F#|------------------------------------------------------------------------|
D |------------------------------------------------------------------------|
A |9--9--9--9--10---9--9--9--9--7---9--9--9--9--10---9--9--9--9--0000------|
E |--------------------------------------------------------------0000------|
A |--------------------------------------------------------------0000------|

B |------------------------------------------------------------------------|
F#|------------------------------------------------------------------------|
D |------------------------------------------------------------------------|
A |2--2--2--2--2---5--5--5--5--5---2--2--2--2--2---5--5--5--5--5-----------|
E |2--2--2--2--2---5--5--5--5--5---2--2--2--2--2---5--5--5--5--5-----------|
A |2--2--2--2--2---5--5--5--5--5---2--2--2--2--2---5--5--5--5--5-----------|

B |------------------------------------------------------------------------|
F#|------------------------------------------------------------------------|
D |------------------------------------------------------------------------|
A |2--2--2--2--2---5--5--5--5--5---2--2--2--2--2---5--5--5--5--5-----------|
E |2--2--2--2--2---5--5--5--5--5---2--2--2--2--2---5--5--5--5--5-----------|
A |2--2--2--2--2---5--5--5--5--5---2--2--2--2--2---5--5--5--5--5-----------|

B |------------------------------------------------------------------------|
F#|------------------------------------------------------------------------|
D |------------------------------------------------------------------------|
A |9--9--9--9--10---9--9--9--9--7---9--9--9--9--10---9--9--9--9--7---------|
E |------------------------------------------------------------------------|
A |------------------------------------------------------------------------|

B |------------------------------------------------------------------------|
F#|------------------------------------------------------------------------|
D |------------------------------------------------------------------------|
A |9--9--9--9--10---9--9--9--9--7---9--9--9--9--10---9--9--9--9--7---------|
E |------------------------------------------------------------------------|
A |------------------------------------------------------------------------|

B |------------------------------------------------------------------------|
F#|------------------------------------------------------------------------|
D |------------------------------------------------------------------------|
A |9--9--9--9--10---9--9--9--9--7---9--9--9--9--10---9--9--9--9--7---------|
E |------------------------------------------------------------------------|
A |------------------------------------------------------------------------|

B |------------------------------------------------------------------------|
F#|------------------------------------------------------------------------|
D |------------------------------------------------------------------------|
A |9--9--9--9--10---9--9--9--9--7---9--9--9--9--10---9--9--9--9--0000------|
E |--------------------------------------------------------------0000------|
A |--------------------------------------------------------------0000------|

B |------------------------------------------------------------------------|
F#|------------------------------------------------------------------------|
D |------------------------------------------------------------------------|
A |2--2--2--2--2---5--5--5--5--5---2--2--2--2--2---5--5--5--5--5-----------|
E |2--2--2--2--2---5--5--5--5--5---2--2--2--2--2---5--5--5--5--5-----------|
A |2--2--2--2--2---5--5--5--5--5---2--2--2--2--2---5--5--5--5--5-----------|

B |------------------------------------------------------------------------|
F#|------------------------------------------------------------------------|
D |------------------------------------------------------------------------|
A |2--2--2--2--2---5--5--5--5--5---2--2--2--2--2---5-----------------------|
E |2--2--2--2--2---5--5--5--5--5---2--2--2--2--2---5-----------------------|
A |2--2--2--2--2---5--5--5--5--5---2--2--2--2--2---5-----------------------|

B |------------------------------------------------------------------------|
F#|------------------------------------------------------------------------|
D |------------------------------------------------------------------------|
A |1-0-6-0-1-0-00-01-0-6-0-1-0[000000]-1-0-6-0-1-0-00-01-0-6-0-1-0[000000]-|
E |1-0-6-0-1-0-00-01-0-6-0-1-0[000000]-1-0-6-0-1-0-00-01-0-6-0-1-0[000000]-|
A |1-0-6-0-1-0-00-01-0-6-0-1-0[000000]-1-0-6-0-1-0-00-01-0-6-0-1-0[000000]-|

B |------------------------------------------------------------------------|
F#|------------------------------------------------------------------------|
D |------------------------------------------------------------------------|
A |1-0-6-0-1-0-00-01-0-6-0-1-0-00001-0-6-0-1-0-00-01-0-6-0-1-0-------------|
E |1-0-6-0-1-0-00-01-0-6-0-1-0-00001-0-6-0-1-0-00-01-0-6-0-1-0-------------|
A |1-0-6-0-1-0-00-01-0-6-0-1-0-00001-0-6-0-1-0-00-01-0-6-0-1-0-------------|

B |------------------------------------------------------------------------|
F#|------------------------------------------------------------------------|
D |------------------------------------------------------------------------|
A |------------------------------------------------------------------------|
E |2---------------5-------------------------------------------------------|
A |--------------------------------6---------------4-----------------------|

B |------------------------------------------------------------------------|
F#|------------------------------------------------------------------------|
D |------------------------------------------------------------------------|
A |------------------------------------------------------------0000--------|
E |2---------------5-------------------------------------------0000--------|
A |--------------------------------6---------------4-----------0000--------|

B |------------------------------------------------------------------------|
F#|------------------------------------------------------------------------|
D |------------------------------------------------------------------------|
A |2--2--2--2--2---5--5--5--5--5---2--2--2--2--2---5--5--5--5--5-----------|
E |2--2--2--2--2---5--5--5--5--5---2--2--2--2--2---5--5--5--5--5-----------|
A |2--2--2--2--2---5--5--5--5--5---2--2--2--2--2---5--5--5--5--5-----------|

B |------------------------------------------------------------------------|
F#|------------------------------------------------------------------------|
D |------------------------------------------------------------------------|
A |2--2--2--2--2---5--5--5--5--5---2--2--2--2--2---5-----------------------|
E |2--2--2--2--2---5--5--5--5--5---2--2--2--2--2---5-----------------------|
A |2--2--2--2--2---5--5--5--5--5---2--2--2--2--2---5-----------------------|

B |------------------------------------------------------------------------|
F#|------------------------------------------------------------------------|
D |------------------------------------------------------------------------|
A |1-0-6-0-1-0-00-01-0-6-0-1-0-00001-0-6-0-1-0-00-01-0-6-0-1-0-------------|
E |1-0-6-0-1-0-00-01-0-6-0-1-0-00001-0-6-0-1-0-00-01-0-6-0-1-0-------------|
A |1-0-6-0-1-0-00-01-0-6-0-1-0-00001-0-6-0-1-0-00-01-0-6-0-1-0-------------|

            
            
Suggest correction
Creating personal tab
Creating personal tab
You can edit any tab online and save it as your Personal.

You can edit, replace or remove any tab part or add personal notes – all changes will be seen only by you.

Personal tabs can be accessed anytime from any device, even offline.
Learn more »
Give kudos to tab author, rate the tab!
1 2 3 4 5
comments
print report bad tab
2 comments total.
0 reply
xSacrilegex 70 Mar 28, 2007 08:00 AM

Verse has parts like(actually listen for a real pattern):

B ------------------------------
F#--0--0----0--0---0--0----0--0-
D ----4-------4------4-------4--
A --------0---------------------
E -2-------------0--------------
A -----------------------5------

0 reply
DarkMeteora 10 Feb 17, 2014 12:04 PM

Hey dude, good job! :D I rate 4

guest
You may want to rate the tab now too:
select rating
Wanna post a correction for this tab? Suggest correction