Oops, an error
Loading. Please wait.

Sufficate tab

790 views 1 this week
no commentswrite comment
1 2 3 4 5
2 more votes to show rating
add to favorites
×
Save as Personal and add changes to this tab that will be seen only by you. Learn more ›
×
You can save this tab as Personal to edit and correct it or add notes. All changes will be seen only by you. Learn more »
launch autoscroll
font size
0
reset
how to read this tab
guitar tuner
edit
Autoscroll
slow
fast
+/-
esc
set tempo
stop
Motograter
"Sufficate"
Soundtrack: The Texas Chainsaw Mascare

drowning in time

Intro/Main Riff
e-------------------------------------------------------------|
b-------------------------------------------------------------|
g---------------------------^-----------------------------^---|
d--2-2-2---2-2-2---2-2-2--2-3---2-2-2---2-2-2---2-2-2---2-3---|
a--2-2-2---2-2-2---2-2-2--2-3---2-2-2---2-2-2---2-2-2---2-3---|
e--0-0-0---0-0-0---0-0-0--0-1---0-0-0---0-0-0---0-0-0---0-1---|

Keyboard
e-------------------------------------------------------------|
b--------------------------11--11--11----------11/12\11-------|
g-------------------------------------9-9---------------9-7-9-|
d-------------------------------------------------------------|
a-------------------------------------------------------------|
e-------------------------------------------------------------|

Verses
e----------------------------  ----------------------------------|
b-------------------------^--  ----------------------------------|
g-------------------------3--  ----------------------------------|
d--2-2-2---2-2-2---2-2-2--3--  --2-2-2---2-2-2---2-2-2---3--4--5-|
a--2-2-2---2-2-2---2-2-2--1--  --2-2-2---2-2-2---2-2-2---3--4--5-|
e--0-0-0---0-0-0---0-0-0-----  --0-0-0---0-0-0---0-0-0---1--2--3-|
                           x6
                e--0-0-0--7-7-6-6-5-5-|
                b--0-0-0--7-7-6-6-5-5-|
                g---------------------|
                d---------------------|
                a---------------------|
                e---------------------|

Chorus
e---------------------------------------------------------------|
b---------------------------------------------------------------|
g--10-10-10--8-8-8--10-10-10-----17-17--16-16--17-17------------|
d---x--x--x--x-x-x---x--x--x------x--x---x--x---x--x------------|
a---8--8--8--6-6-6---8--8--8-----15-15--14-14--15-15------------|
e---------------------------------------------------------------|
  (Your face)

Bridge 1
e---------------------------------------------------------------|
b---------------------------------------------------------------|
g--9-9-9--10-10-10--11-11-11--12-12-12--10-10-10--12-12-12------|
d--x-x-x---x--x--x---x--x--x---x--x--x---x--x--x---x--x--x------|
a--7-7-7---8--8--8---9--9--9--10-10-10---8--8--8--10-10-10------|
e---------------------------------------------------------------|
  (I'm wasting)

Bridge 2
e-------------------------------------------|
b-------------------------------------------|
g-------------------------------------------|
d--2-2-----2-3-----2-3-4-----2-3-4-5--------|
a--2-2-----2-3-----2-3-4-----2-3-4-5--------|
e--0-0-----0-1-----0-1-2-----0-1-2-3--------|

Right!
What's to say? Heard you got roughed up
Once again you get left behind
Check yourself, don't get it twisted
Write yourself a formal good-bye

Fuck yourself, don't get it talked up
Got no qualms with taking your life
Quick to judge, quick to get tossed up
Dig yourself a formal good-bye

Suffocate, you're nothing to no one
Suffocate, you're living a lie

Suffocate, now you get nothing
No one left to help for your life
Got no love, get no love for you
No respect for you or your kind

Subjugate, now you got nothing
No one left to help you get by
Strapped yourself, don't get it twisted
Kill yourself? And that's how you died

Suffocate, you're nothing to no one
Suffocate, you're living a lie
Suffocate, you're nothing to no one
Suffocate, and that's how you die

I'm wasting precious moments
Trying not to suffocate
Some things are meant to be easy
Every muscle pulls the weight

Your face, empty, emotionless and ugly
Stamping, my hope, every single lie
You know, I can't, pull you above the storm
Everything, you got, you're just not who you pretend to be
Bitch

What?
Fuck yourself, don't get it tossed up
Got no qualms with taking your life
Fuck yourself, don't get it twisted
Dig yourself a formal good-bye

I'm wasting precious moments
Trying not to suffocate
Some things are meant to be easy
Every muscle pulls the weight

Suffocate
Suffocate
Suffocate
Suggest correction
Creating personal tab
Creating personal tab
You can edit any tab online and save it as your Personal.

You can edit, replace or remove any tab part or add personal notes – all changes will be seen only by you.

Personal tabs can be accessed anytime from any device, even offline.
Learn more »
Give kudos to tab author, rate the tab!
1 2 3 4 5
comments
print report bad tab
guest
Wanna post a correction for this tab? Suggest correction