Oops, an error
Loading. Please wait.

Night Life Bass Tab

25 views 1 this week
no commentswrite comment
1 2 3 4 5
3 more votes to show rating
add to favorites
launch autoscroll
font size
0
reset
guitar tuner
Autoscroll
slow
fast
+/-
esc
set tempo
stop
Help us to improve Ultimate-Guitar.com Take our survey!
×
Author
Difficulty
novice
Song : https://www.youtube.com/watch?v=afkWLdSu4RQ


[Intro]

G|---------------|-----------------|------------------|----------------| (x2)
D|---------------|-----------------|--2h3-3-----------|----------------|
A|--3------------|-2h3-3-----------|---------5--5-3-5-|---0-5-3--3---0-|
E|------5--5-3-5-|--------5--5-----|------------------|-3----------3---|


[Verse]

G|-------------|--------------|--------------|----------------|
D|-------------|-2---2----2---|--------------|----------------|
A|-3-----------|--------2---2-|-5---5----5---|---0-5-3--3---0-|
E|-----5--3--5-|--------------|--------5---5-|-3----------3---|


G|-------------|--------------|--------------|---------------|
D|-------------|-2---2----2---|--------------|---------------|
A|-3-----------|--------2---2-|-5---5----5---|---0-5-3--3--2-|
E|-----5--3--5-|--------------|--------5---5-|-3-------------|


[Chorus]

G|---------|------------------|
D|---------|--2h3-------------|
A|-1-------|-------3----------|
E|------1--|----------1-------|


[Intro repeat]

G|---------------|-----------------|------------------|----------------| (x2)
D|---------------|-----------------|--2h3-3-----------|----------------|
A|--3------------|-2h3-3-----------|---------5--5-3-5-|---0-5-3--3---0-|
E|------5--5-3-5-|--------5--5-----|------------------|-3----------3---|


[Verse]

G|-------------|--------------|--------------|---------------|
D|-------------|-2---2----2---|--------------|---------------|
A|-3-----------|--------2---2-|-5---5----3-5-|---0-5-3--3----|
E|-----5--3--5-|--------------|--------5-----|-3-----------3-|


G|--------------|--------------|--------------|---------------|
D|--------------|-2---2----2---|--------------|---------------|
A|-3---3--------|--------2---2-|-5---5----3-5-|---0-5-3--3--2-|
E|--------5-3-5-|--------------|--------5-----|-3-------------|


[Chorus]

G|---------|------------------|
D|---------|--2h3-------------|
A|-1-------|-------3----------|
E|------1--|----------1-------|


[Intro repeat]

G|---------------|-----------------|------------------|----------------| 
D|---------------|-----------------|--2h3-3-----------|----------------|
A|--3------------|-2h3-3-----------|---------5--5-3-5-|---0-5-3--3---0-|
E|------5--5-3-5-|--------5--5-----|------------------|-3----------3---|


G|--------------|--------------|------------------|---------------| 
D|--------------|--------------|--2h3-3-----------|---------------|
A|-3------------|-3-3----------|---------5--5-3-5-|---0-5-3--3--3-|
E|-----5--5-3-5-|------5--5----|------------------|-3-------------|


[Bridge]

G|-------------------------------|--------------|--------------3---|
D|-------------------------5-3h5-|-----------3--|----------3h5-----|
A|---------------------3h5-------|-3-3--3--3----|--3-3--3--------3-|
E|-3-3--3--3--3--3--3------------|--------------|------------------|


G|----------------|-------------------|-----------------|----------------|
D|-2-2--2-------2-|-------------------|----------3-3----|---------3-3----|
A|---------0h2----|-3-3--(3-2-1)-1----|------2h3------3-|-----2h3------3-|
E|----------------|-----------------3-|-1-1-------------|-1--------------|


G|-------------------|-------------------|-------------------|-------------------|
D|-2-2--(0-1-2)-2----|-------------------|-2-2--(0-1-2)-2----|-------------------|
A|-----------------3-|-5-5--(3-4-x)-5--3-|-----------------3-|-5-5--(3-4-x)-5--5-|
E|-------------------|-------------------|-------------------|-------------------|


G|------3----2-/12\--|--------------------|-----------------|-----------------|
D|-2-----------------|--------------------|-----------------|-----------------|
A|-------------------|--5-5--(3-4-x)-5--0-|-----------------|-----------------|
E|-------------------|--------------------|-3-3-3-3-3-3-3-3-|-3-3-3-3-3-3-3-3-|


[Verse]

G|-------------|--------------|--------------|----------------|
D|-------------|-2---2----2---|--------------|----------------|
A|-3-----------|--------2---2-|-5---5----5---|---0-5-3--3---0-|
E|-----5--3--5-|--------------|--------5---5-|-3----------3---|


G|--------------|--------------|--------------|---------------|
D|--------------|-2---2----0-2-|--------------|---------------|
A|-3---3--------|--------2-----|-5---5----5---|---0-5-3--3--2-|
E|--------5-3-5-|--------------|--------5---5-|-3-------------|


[Chorus]

G|---------|------------------|
D|---------|--2h3-------------|
A|-1-------|-------3----------|
E|------1--|----------1-------|


[Intro repeat]

G|---------------|-----------------|------------------|----------------| 
D|---------------|-----------------|--2h3-3-----------|----------------|
A|--3------------|-2h3-3-----------|---------5--5-3-5-|---0-5-3--3---0-|
E|------5--5-3-5-|--------5--5-----|------------------|-3----------3---|


G|---------------|-----------------|------------------|-------------------| 
D|---------------|-----------------|--2h3-3-----------|-------------------|
A|--3------------|-2h3-3-----------|---------5--5-3-5-|---0-5-3--3--------|
E|------5--5-3-5-|--------5--5-----|------------------|-3-----------(3-3)-|


[Bridge]

G|-------------------------------|--------------|--------------3---|
D|-------------------------5-3h5-|-----------3--|----------3h5-----|
A|---------------------3h5-------|-3-3--3--3----|--3-3--3--------3-|
E|-3-3--3--3--3--3--3------------|--------------|------------------|


G|----------------|-------------------|-----------------|----------------|
D|-2-2--2-------2-|-------------------|----------3-3----|---------3-3----|
A|---------0h2----|-3-3--(3-2-1)-1----|------2h3------3-|-----2h3------3-|
E|----------------|-----------------3-|-1-1-------------|-1--------------|


G|-------------------|-------------------|--------------|-------------------|
D|-2-2--(0-1-2)-2----|-------------------|-2-2---x-2----|-------------------|
A|-----------------3-|-5-5--(3-4-x)-5--3-|------------3-|-5-5--(3-4-x)-5--5-|
E|-------------------|-------------------|--------------|-------------------|


G|------3----2-/12\--|--------------------|-----------------|-----------------|
D|-2-----------------|--------------------|-----------------|-----------------|
A|-------------------|--5-5--(3-4-x)-5--0-|-----------------|-----------------|
E|-------------------|--------------------|-3-3-3-3-3-3-3-3-|-3-3-3-3-3-3-3-3-|


[Verse]

G|--------------|--------------|--------------|----------------|
D|--------------|-2---2----2---|--------------|----------------|
A|-3---3--------|--------2---2-|-5---5----3-5-|---0-5-3--3---0-|
E|--------5-3-5-|--------------|--------5-----|-3----------3---|


G|-------------|--------------|--------------|---------------|
D|-------------|-2---2----0-2-|--------------|---------------|
A|-3---3-------|--------2-----|-5---5----3-5-|---0-5-3--3--2-|
E|--------3-5--|--------------|--------5-----|-3-------------|


[Chorus]

G|---------|------------------|
D|---------|--2h3-------------|
A|-1-------|-------3----------|
E|------1--|----------1-------|


[Outro]

G|---------------|-----------------|-----------------|----------------| (x3)
D|---------------|-----------------|-2h3-3-----------|----------------|
A|--3------------|-2h3-3-----------|--------5--5-3-5-|---0-5-3--3---0-|
E|------5--5-3-5-|--------5--5-3-5-|-----------------|-3----------3---|


G|--------------|-----------------|-----------------|----------|
D|--------------|-----------------|-2h3-3-----------|----------|
A|-3------------|-2h3-3-----------|--------5--5-3-5-|---0-5-3--|
E|-----5--5-3-5-|--------5--5-3-5-|-----------------|-3--------|



***************************

| / : slide up
| \ : slide down
| h : hammer-on
| x : dead note
| ( ) : very fast

***************************

in regular sequence!
Suggest correction
Give kudos to tab author, rate the tab!
1 2 3 4 5
comments
print report bad tab
guest
You may want to rate the tab now too:
select rating
Wanna post a correction for this tab? Suggest correction