Oops, an error
Loading. Please wait.

Rain Girl bass

37 views 1 this week
no commentswrite comment
1 2 3 4 5
3 more votes to show rating
add to favorites
×
Save as Personal and add changes to this tab that will be seen only by you. Learn more ›
×
You can save this tab as Personal to edit and correct it or add notes. All changes will be seen only by you. Learn more »
launch autoscroll
font size
0
reset
guitar tuner
edit
Autoscroll
slow
fast
+/-
esc
set tempo
stop
Author
Difficulty
Song : https://www.youtube.com/watch?v=-IjXt3asXrs


[Intro]

G|----------------|---------------|
D|----------------|---------------|
A|-------r--------|-----------13\-|
E|----------------|---------------|


G|------------------|-------------------|-------------------|-------------------|
D|------------------|-------------------|-------------------|-------------------|
A|-4-4-4-4----------|--4-4-4-4-4-4-4-4--|--4-4-4-4----------|--4-4-4-4-4-4-4-4--|
E|---------2-2-2-2--|-------------------|----------2-2-2-2--|-------------------|


G|-------------------|----------------|--------------------|-------------------|
D|-------------------|----------------|--------------------|-------------------|
A|-------------------|----------------|---6-6-6-6----------|--4-4-4-4-4-4-4-4--|
E|--4-4-4-4-2-2-2-2--|--1-1-1-1-1-1-1-|-6---------4-4-4-4--|-------------------|


[Verse 1]

G|-------------------|-------------------|-------------------|-------------------|
D|-------------------|-------------------|-------------------|-------------------|
A|--4-4-4-4----------|--4-4-4-4-4-4-4-4--|--4-4-4-4----------|--4-4-4-4-4-4-4-4--|
E|----------2-2-2-2--|-------------------|----------2-2-2-2--|-------------------|


G|-------------------|----------------|--------------------|-------------------|
D|-------------------|----------------|--------------------|-------------------|
A|-------------------|----------------|---6-6-6-6----------|--4-4-4-4-4-4-4-4--|
E|--4-4-4-4-2-2-2-2--|--1-1-1-1-1-1-1-|-6---------4-4-4-4--|-------------------|


[Verse 2]

G|-------------------|-------------------|-------------------|-------------------|
D|-------------------|-------------------|-------------------|-------------------|
A|--4-4-4-4----------|--4-4-4-4-4-4-4-4--|--4-4-4-4----------|--4-4-4-4-4-4-4-4--|
E|----------2-2-2-2--|-------------------|----------2-2-2-2--|-------------------|


G|-------------------|----------------|--------------------|-------------------|
D|-------------------|----------------|--------------------|-------------------|
A|-------------------|----------------|---6-6-6-6----------|--4-4-4-4-4-4-4-4--|
E|--4-4-4-4-2-2-2-2--|--1-1-1-1-1-1-1-|-6---------4-4-4-4--|-------------------|


[Verse 3]

G|-------------------|-------------------|-------------------|-------------------|
D|-------------------|-------------------|-------------------|-------------------|
A|-------------------|-------------------|--1-1-1-1-0-0-0-0--|-------------------|
E|--2-2-2-2-2-2-2-2--|--1-1-1-1-1-1-1-1--|-------------------|--4-4-4-4-3-3-3-3--|


G|-------------------|-------------------|-------------------|-------------------|
D|-------------------|--2-2-2-2-2-2-2-2--|-------------------|-------------------|
A|-------------------|-------------------|--4-4-4-4-4-4-4-4--|--4-4-4-4-4-4-4-4--|
E|--2-2-2-2-2-2-2-2--|-------------------|-------------------|-------------------|


G|-------------------|-------------------|
D|-------------------|-------------------|
A|-------------------|-------------------|
E|--2-2-2-2-2-2-2-2--|--2-2-2-2-2-2-2-2--|


[Chorus]

G|-------------------|-------------------|-------------------------|
D|-------------------|-------------------|-------------------------|
A|--4-4-4-4-4-4-4-4--|--4-4-4-4-4-4-4-4--|------0--2--0-3-2--0--2--|
E|-------------------|-------------------|--2----------------------|


G|-------------------|-------------------|---------------------------|
D|-------------------|-------------------|---------------------------|
A|--4-4-4-4-4-4-4-4--|--4-4-4-4-4-4-4-4--|------0--2--0-4-3--2---11\-|
E|-------------------|-------------------|--2------------------------|


G|----------------------------------|
D|----------------------------------|
A|-4-4-4-4-4-4-4-444-4-4-4-4-4-4-44-|
E|----------------------------------|


[Verse 4]

G|------------------|-------------------|-------------------|-------------------|
D|------------------|-------------------|-------------------|-------------------|
A|-4-4-4-4----------|--4-4-4-4-4-4-4-4--|--4-4-4-4----------|--4-4-4-4-4-4-4-4--|
E|---------2-2-2-2--|-------------------|----------2-2-2-2--|-------------------|


G|-------------------|----------------|--------------------|-------------------|
D|-------------------|----------------|--------------------|-------------------|
A|-------------------|----------------|---6-6-6-6----------|--4-4-4-4-4-4-4-4--|
E|--4-4-4-4-2-2-2-2--|--1-1-1-1-1-1-1-|-6---------4-4-4-4--|-------------------|


[Verse 5]

G|-------------------|-------------------|-------------------|-------------------|
D|-------------------|-------------------|-------------------|-------------------|
A|-------------------|-------------------|--1-1-1-1-0-0-0-0--|-------------------|
E|--2-2-2-2-2-2-2-2--|--1-1-1-1-1-1-1-1--|-------------------|--4-4-4-4-3-3-3-3--|


G|-------------------|-------------------|-------------------|-------------------|
D|-------------------|--2-2-2-2-2-2-2-2--|-------------------|-------------------|
A|-------------------|-------------------|--4-4-4-4-4-4-4-4--|--4-4-4-4-4-4-4-4--|
E|--2-2-2-2-2-2-2-2--|-------------------|-------------------|-------------------|


G|-------------------|-------------------|
D|-------------------|-------------------|
A|-------------------|-------------------|
E|--2-2-2-2-2-2-2-2--|--2-2-2-2-2-2-2-2--|


[Chorus]

G|-------------------|-------------------|-------------------------|
D|-------------------|-------------------|-------------------------|
A|--4-4-4-4-4-4-4-4--|--4-4-4-4-4-4-4-4--|------0--2--0-3-2--0--2--|
E|-------------------|-------------------|--2----------------------|


G|-------------------|-------------------|---------------------------|
D|-------------------|-------------------|---------------------------|
A|--4-4-4-4-4-4-4-4--|--4-4-4-4-4-4-4-4--|------0--2--0-4-3--2---11\-|
E|-------------------|-------------------|--2------------------------|


G|------------------|
D|------------------|
A|-4-4-4-4-4-4-4-4--|
E|------------------|


[Bridge]

G|-------------------|-------------------|-------------------|-------------------|
D|-------------------|-------------------|-------------------|-------------------|
A|-------------------|-------------------|--4-4-4-4-4-4-4-4--|--4-4-4-4-4-4-4-4--|
E|--2-2-2-2-2-2-2-2--|--2-2-2-2-2-2-2-2--|-------------------|-------------------|


G|-------------------|-------------------|------------------|------------------------------------|
D|-------------------|-------------------|------------------|------------------------------------|
A|-------------------|-------------------|--6-6-6-6-6-6-6-6-|------------------------------------|
E|--2-2-2-2-2-2-2-2--|--2-2-2-2-2-2-2-2--|------------------|-4--4-4-4-4-4-4-4/16--16-16-16-16\--|


[Instrumental]

G|------------------|-------------------|-------------------|-------------------|
D|------------------|-------------------|-------------------|-------------------|
A|-4-4-4-4----------|--4-4-4-4-4-4-4-4--|--4-4-4-4----------|--4-4-4-4-4-4-4-4--|
E|---------2-2-2-2--|-------------------|----------2-2-2-2--|-------------------|


G|-------------------|----------------|--------------------|-------------------|
D|-------------------|----------------|--------------------|-------------------|
A|-------------------|----------------|---6-6-6-6----------|--4-4-4-4-4-4-4-4--|
E|--4-4-4-4-2-2-2-2--|--1-1-1-1-1-1-1-|-6---------4-4-4-4--|-------------------|


[Verse 6]


G|-------------------|-------------------|-------------------|-------------------|
D|-------------------|-------------------|-------------------|-------------------|
A|-------------------|-------------------|--1-1-1-1-0-0-0-0--|-------------------|
E|--2-2-2-2-2-2-2-2--|--1-1-1-1-1-1-1-1--|-------------------|--4-4-4-4-3-3-3-3--|


G|-------------------|-------------------|-------------------|-------------------|
D|-------------------|--2-2-2-2-2-2-2-2--|-------------------|-------------------|
A|-------------------|-------------------|--4-4-4-4-4-4-4-4--|--4-4-4-4-4-4-4-4--|
E|--2-2-2-2-2-2-2-2--|-------------------|-------------------|-------------------|


G|-------------------|-------------------|
D|-------------------|-------------------|
A|-------------------|-------------------|
E|--2-2-2-2-2-2-2-2--|--2-2-2-2-2-2-2-2--|


[Chorus]

G|-------------------|-------------------|-------------------------| (x2)
D|-------------------|-------------------|-------------------------|
A|--4-4-4-4-4-4-4-4--|--4-4-4-4-4-4-4-4--|------0--2--0-3-2--0--2--|
E|-------------------|-------------------|--2----------------------|


G|-------------------|-------------------|----------------------|
D|-------------------|-------------------|----------------------|
A|--4-4-4-4-4-4-4-4--|--4-4-4-4-4-4-4-4--|------0--2--0-4-3--2--|
E|-------------------|-------------------|--2-------------------|


G|----------------------------------|
D|-------------------------------6--|
A|-----------------------------6----|
E|-2-4-4-4-2-4-4-4-2-4-4-4-4-4------|


[Outro] (x5)

G|-------------------|-------------------|-------------------|-------------------|
D|-------------------|-------------------|-------------------|-------------------|
A|--4-4-4-4----------|--4-4-4-4-4-4-4-4--|--4-4-4-4----------|--4-4-4-4-4-4-4-4--|
E|----------2-2-2-2--|-------------------|----------2-2-2-2--|-------------------|


G|-------------------|----------------|--------------------|-------------------|
D|-------------------|----------------|--------------------|-------------------|
A|-------------------|----------------|---6-6-6-6----------|--4-4-4-4-4-4-4-4--|
E|--4-4-4-4-2-2-2-2--|--1-1-1-1-1-1-1-|-6---------4-4-4-4--|-------------------|



*******************

/ : slide up
\ : slide down
r : rest

*******************

in regular sequence! 

            
            
Suggest correction
Creating personal tab
Creating personal tab
You can edit any tab online and save it as your Personal.

You can edit, replace or remove any tab part or add personal notes – all changes will be seen only by you.

Personal tabs can be accessed anytime from any device, even offline.
Learn more »
Give kudos to tab author, rate the tab!
1 2 3 4 5
comments
print report bad tab
guest
You may want to rate the tab now too:
select rating
Wanna post a correction for this tab? Suggest correction