Oops, an error
Loading. Please wait.

Wait For Me Tab

version 1
version 1

Whole song

12,566 views 51 this week
2 commentsread comments
1 2 3 4 5
x 13
add to favorites
launch autoscroll
font size
0
reset
how to read this tab
guitar tuner
Autoscroll
slow
fast
+/-
esc
set tempo
stop
Help us to improve Ultimate-Guitar.com Take our survey!
×
Author
Tuning
D# G# C# F# A# D#
Artist: Motopony                             
Song: Wait for Me  

(If you want it in the original key, tune the strings all a half step down, so that its 
D#G#C#F#A#d#. But sometimes I'm just too lazy to tune everything so I just play it half 
step up basically. For the verses, you just repeat the two lines.)

[Intro] x2
D#|-------------------------------------------------------------------|
A#|-------------------------------------------------------------------|
F#|-------------------------------------------------------------------|
C#|---0---0---0---0---0---0---0---0---2---2---2---2---2---2---2---2---|
G#|-----2-------2-------2-------2-------3-------3-------3-------3-----|
D#|-3-------3-------3-------3-------3-------3-------3-------3---------|


D#|-------------------------------------------------------------------|
A#|-------------------------------------------------------------------|
F#|-------------------------------------------------------------------|
C#|---4---4---4---4---4---4---4---4---5---5---5---5---5---5---5---5---|
G#|-----5-------5-------5-------5-------5-------5-------5-------5-----|
D#|-3-------3-------3-------3-------3-------3-------3-------3---------|

 Verse 1] x4
                  She'll come to me in a dream
D#|-------------------------------------------------------------------|
A#|-------------------------------------------------------------------|
F#|-------------------------------------------------------------------|
C#|---0---0---0---0---0---0---0---0---2---2---2---2---2---2---2---2---|
G#|-----2-------2-------2-------2-------3-------3-------3-------3-----|
D#|-3-------3-------3-------3-------3-------3-------3-------3---------|

                  And I don't even know her name
D#|-------------------------------------------------------------------|
A#|-------------------------------------------------------------------|
F#|-------------------------------------------------------------------|
C#|---4---4---4---4---4---4---4---4---5---5---5---5---5---5---5---5---|
G#|-----5-------5-------5-------5-------5-------5-------5-------5-----|
D#|-3-------3-------3-------3-------3-------3-------3-------3---------|

                 A pretty mark upon her breast
                 To signify her from the rest
                 But her and I are just the same
                 Building bridges out of fame
                 She stands upon a dinner plate
                 And tells me that I'll have to wait

[Chorus]
                    Wait    for     me
D#|-------------------------------------------------------------------|
A#|-------------------------------------------------------------------|
F#|---0---0---0---0---0---0---0---0---0---0---0---0---0---0---0---0---|
C#|-----2-------2-------2-------2-------0-------0-------0-------0-----|
G#|-------------------------------------------------------------------|
D#|-3-------3-------3-------3-------3-------3-------3-------3---------|

                    I know it won't be easy
D#|-------------------------------------------------------------------|
A#|-------------------------------------------------------------------|
F#|---0---0---0---0---0---0---0---0---0---0---0---0---0---0---0---0---|
C#|-----2-------2-------2-------2-------0-------0-------0-------0-----|
G#|-------------------------------------------------------------------|
D#|-3-------3-------3-------3-------3-------3-------3-------3---------|

                    What    a       thing                     To beli-
D#|-------------------------------------------------------------------|
A#|-------------------------------------------------------------------|
F#|---0---0---0---0---0---0---0---0---0---0---0---0---0---0---0---0---|
C#|-----2-------2-------2-------2-------0-------0-------0-------0-----|
G#|-------------------------------------------------------------------|
D#|-3-------3-------3-------3-------3-------3-------3-------3---------|

   -eve                                                       In a dream
D#|-------------------------------------------------------------------|
A#|-------------------------------------------------------------------|
F#|---0---0---0---0---0---0---0---0---0---0---0---0---0---0---0---0---|
C#|-----2-------2-------2-------2-------0-------0-------0-------0-----|
G#|-------------------------------------------------------------------|
D#|-3-------3-------3-------3-------3-------3-------3-------3---------|


D#|-------------------------------------------------------------------|
A#|-------------------------------------------------------------------|
F#|-------------------------------------------------------------------|
C#|---2---2---2---2---2---2---2---2---2---2---2---2---2---2---2---2---|
G#|-----2-------2-------2-------2-------2-------2-------2-------2-----|
D#|-3-------3-------3-------3-------3-------3-------3-------3---------|

[Verse 2] 
(play the same as verse 1)
Perhaps I knew her long ago
I wrote her poems at nine years old
But then I did become a man
The letter slipped right through my hands
Practised all my wit and charm
Had many girls on every arm
I learned the depths of love and hate
But never did learn how to wait

[Chorus]
Wait    for     you
You say it like it's easy to do
What    a       thing
To beli-eve
In a dream

[Verse 3] 
(play the same as verse 1)
I hope you know that all my life
I have been searching for a wife
A partner and a confidant
The girl who wants the things I want
A girl who doesn't come along
Cuz she's already where I'm goin'
I stand upon a broken stage
I beg ya darling, please, please wait

[Chorus]
Wait    for     me
I know it won't be easy
What    a       thing
To beli-eve
In a dream

[Outro]
 I believe                                                    In a dream
D#|-------------------------------------------------------------------|
A#|-------------------------------------------------------------------|
F#|-------------------------------------------------------------------|
C#|---5---5---5---5---5---5---5---5---5---5---5---5---5---5---5---5---|
G#|-----7-------7-------7-------7-------5-------5-------5-------5-----|
D#|-3-------3-------3-------3-------3-------3-------3-------3---------|

D#|-------------------------------------------------------------------------|
A#|-------------------------------------------------------------------------|
F#|-------------------------------------------------------------------------|
C#|---2---2---2---2---2---2---2---2---2---2---2---2---2---2---2---2---------|
G#|-----2-------2-------2-------2-------2-------2-------2-------2------2--0-|
D#|-3-------3-------3-------3-------3-------3-------3-------3-------3-------| 
Suggest correction
comments
print report bad tab
2 comments total.
0 reply
Ace Swag 32 Dec 16, 2014 04:30 PM

This is great! Thank you

0 reply
Pigpogs 10 Jan 29, 2015 07:27 AM

Great tab thanks!

guest
You may want to rate the tab now too:
select rating
Wanna post a correction for this tab? Suggest correction