Oops, an error
Loading. Please wait.

Algo Mamado Tab

15 views 1 this week
no commentswrite comment
1 2 3 4 5
3 more votes to show rating
add to favorites
launch autoscroll
font size
0
reset
how to read this tab
guitar tuner
Autoscroll
slow
fast
+/-
esc
set tempo
stop
Help us to improve Ultimate-Guitar.com Take our survey!
×
  Intro
  E
e|----------------------
B|----------------------
G|-9---11-9------7-7s9--
D|-9-----------9--------
A|----------------------
E|----------------------

  Riff 1            Riff 2       Riff 3       Riff 4    Riff 5
e|--------------|---------------|--------12|-----------|-----------------
B|-----12-------|---------------|12--------|-----------|----------12-----
G|11b/----11//-9|8h9p8----------|---11b----|7-7s9--7-5-|11b---11b----11b-
D|--------------|------11-9----9|----------|7-7s9--7-5-|-----------------
A|--------------|-----------s11-|----------|-----------|-----------------
E|--------------|---------------|----------|-----------|-----------------

  Riff 6                  Riff 7     Riff 8        Riff 9
e|-----------------------|----------|------12-----|-----------
B|------12---------------|----------|-12------12--|-----------
G|-11b/----11//-p9--11-9-|-s9--8--6-|-11b-----11b-|-5--7s9--9-
D|-----------------------|----------|-------------|-5--7s9--9-
A|-----------------------|----------|-------------|-7--5s7--7-
E|-----------------------|----------|-------------|-----------


         E  Riff 1        B
Quiero cantar,    algo mamado


B5 C5 C#m Riff 2 A
y pensar en esa mujer


         E  Riff 3    B    B5 C5 C#m
que me dejo      alucinado OH OH OH


C#m    Riff 2        A
y muy loco yo me encuentro hoy


          C7 Riff 4        E  Riff 5
todo comenzó una noche de luna


              C7  Riff 4      E   Riff 6
sentado en la barra casi sin nada


              C7 Riff 4    E G#7 C#m (Riff 7)
su cuerpo desnudo me hacia excitar


             A           B           E    Riff 8
era todo un sueño y la tenia que transar


       E5             B5
la encare recontra mamado
B5 C5 C#5              A5
me sarpe no lo pude evitar
           E5                 B5
hay que mujer no puedo encontrarla
B5 C5 C#5                   A5
solo quiero cantar y recordarla
            C5                E5  Riff 9
tan solo quedo la noche en la barra
           C5               E5  Riff 9
que me mostro su cuerpo sin alma
             C5
fue todo un sueño
               E5 G#5 C#5
y hoy tengo que olvidar
      A5            B5      E5
a esa chica que me hizo calentar

SOLO

e|-------------------------------------------------------------
B|-------------12--12---12---------------------12--------------
G|------9-11b--11b-11b--11ba-9-11v---11-9-11b/----11//-9--11-9-
D|-9h11--------------------------------------------------------
A|-------------------------------------------------------------
E|-------------------------------------------------------------

e|--------------------------------------------------------------
B|-10-9--------------10-9-------------------12------------------
G|------11-9------9-------11-9-----9---11b/----11/-p9-11-9--11-9
D|-------------11---------------11------------------------------
A|--------------------------------------------------------------
E|--------------------------------------------------------------

e|-------------------------------------------s12-12----------12-
B|------12----------10-9---------10-9--------s12-12----------12-
G|-11b/----11//-9--------11-9---------11-9----------14p13h14----
D|--------------------------------------------------------------
A|--------------------------------------------------------------
E|--------------------------------------------------------------

e|-12----------------------------12-----------------------------
B|-12-------------------------------15p12-------------------12--
G|----14-12-----12-12-----12-14b----------14-12------12-14b-----
D|-----------14--------14-------------------------14------------
A|--------------------------------------------------------------
E|--------------------------------------------------------------

e|-----------------------------------------------------
B|---------14p12-14b-14b-14ba-p12-14-------------------
G|-14-12-----------------------------12----------------
D|----------------------------------------14-12-12h14--
A|-----------------------------------------------------
E|-----------------------------------------------------


tan solo quedo la noche en la barra
que me mostro su cuerpo sin alma
fue todo un sueño
y hoy tengo que olvidar
a esa perra que me hizo calentar

  Solo 2
e|-------------------------------------------------------------
B|--------------12-------12----------------------------------9-
G|------9-11b------11b---11ba-9-9h11v--11-9-11-9-11-11b-9----9b
D|-9h11---------------------------------------------------11---
A|-------------------------------------------------------------
E|-------------------------------------------------------------

e|---------------------------------------------------------------
B|-9--------9----------------------------------------------------
G|-9b-------9b---------------------------------------------------
D|----11-11-------9h11-9-----------------------------------------
A|-----------------------11-10-9------9ba-p7--9-7----------7-9-9b
E|--------------------------------12--------------9-9--7h9-------

e|----------------------------------------------------------------
B|-----------------------------------------------9--9--9--9--9----
G|-----------------------------------------------9b-9b-9b-9b-9b---
D|------------------------------9-11-11s13-11-9-----------------11
A|-9ba-7--7-9p7--9s11--9-9-9s11-----------------------------------
E|----------------------------------------------------------------

e|----------------12-----12-----12--------------
B|-9----------12b----12b----12b----12b-12ba-10--
G|-9h11-11b-------------------------------------
D|----------------------------------------------
A|----------------------------------------------
E|----------------------------------------------


tan solo quedo la noche en la barra
que me mostro su cuerpo sin alma
fue todo un sueño
y hoy tengo que olvidar
a esa viciosa que me hizo

   E
  Calentar               Calentar                Hizo Calentar
e|---------------------0-----------------------0---------------
B|-------------------------------------------------------------
G|--------9-7---2--0h1------------9-7---2--0h1---------------9-
D|--------9-7---2-----------------9-7---2--------------------9-
A|-----------------------------------------------------------7-
E|-------------------------------------------------------------
Suggest correction
Give kudos to tab author, rate the tab!
1 2 3 4 5
comments
print report bad tab
guest
You may want to rate the tab now too:
select rating
Wanna post a correction for this tab? Suggest correction