Oops, an error
Loading. Please wait.

Barrio Perdido Tab

13 views 1 this week
no commentswrite comment
1 2 3 4 5
3 more votes to show rating
add to favorites
launch autoscroll
font size
0
reset
how to read this tab
guitar tuner
Autoscroll
slow
fast
+/-
esc
set tempo
stop
BARRIO PERDIDO- MOTOR LOCO

  Riff 1  (el final se engancha con el principio)
e|---------------------------------------------------
B|---------------------------------------------------
G|------------5-5---5----------------7--7----5--5-5--
D|-5-5---5-0--5-5---5--0--5-5---5-0--7--7-0--5--5-5--
A|-5-5---5-0--3-3---3--0--5-5---5-0--5--5-0--3--3-3--
E|-3-3---3----------------3-3---3--------------------


  Intro
e|-------------------------------------------------------------
B|-----3---5-5----3h4h5-3v--3----------------------------------
G|-3-4-----5-5-------------------------7---7------5--5---------
D|-------------5-----------------------------------------------
A|------------------------------7h9-9--------5h7---------7s----
E|-------------------------------------------------------------

e|-------------------------------------------------------------
B|----------------------3h4h5--3v--3---------------------------
G|-3v---3-3--5s7--5--------------------------7---7-----5--5----
D|-------------------5-----------------------------------------
A|-------------------------------------7h9-9-------5h7-------7s
E|-------------------------------------------------------------


Intro: Riff 1


Riff 1
Escuchen bien, que no es casual
una historia, les quiero contar
lujos y detalles les voy a dar
no se lo pierdan, es pura verdad


Am                 C
   se trata de un barrio perdido

Am              C
   en donde crecí con amigos

Am              C
   que tiene sabor a prohibido

Am              C5         B5       G5
   y que en un mapa no se puede ubicar


En el estribillo, hace un arpegio en los acordes:

  Am          C                  C5       B5
e|-------5--|-------0------0---|--------|---------
B|-----5----|-----1---1------1-|--------|---------
G|---5------|---0-------0------|---5--5-|----4--4-
D|-7--------|------------------|---5--5-|----4--4-
A|----------|-3----------------|-3------|--2------
E|----------|------------------|--------|---------


e|-------------------------------------------------------------
B|-----3---5-5----3h4h5-3v--3----------------------------------
G|-3-4-----5-5-------------------------7---7------5--5---------
D|-------------5-----------------------------------------------
A|------------------------------7h9-9--------5h7---------7s----
E|-------------------------------------------------------------


Riff 1
toda la vida, la pase acá
tantos recuerdos no puedo olvidar

 Riff 2
y esa esquina donde crecía
sigue esperándome todos los días

  Riff 2
e|-s3-3-3-3-3-3-3-3-3-3-3-3-3-3-3-3-3-3-3-3-3-
B|-s3-3-3-3-3-3-3-3-3-3-3-3-3-3-3-3-3-3-3-3-3-
G|--------------------------------------------
D|--------------------------------------------
A|--------------------------------------------
E|--------------------------------------------


y en esas noches de frío
con la niebla de testigo
y mis amigos tomando
en cada invierno siguen estando

  Solo
e|-3-------3------------------------------------------
B|-3--6b-----3-5--5ba-p3--5---------------------------
G|---------------------------3v--0--------------------
D|---------------------------------3p2-3--2-----------
A|------------------------------------------3-1-------
E|-----------------------------------------------3-1-3

e|-----------------3--------------------------------10-------------
B|-------------------------------------8--10-8-10b/----10//-p8-10-8
G|-----0--2-0-2b/----2//-p0-2-0----7h9-----------------------------
D|-0h2-------------------------------------------------------------
A|-----------------------------------------------------------------
E|-----------------------------------------------------------------

                   y en esas tardes de sol
e|-----------------------------------------
B|----8--------------------------8---------
G|-9-----9-7--7h9v----------7h9------------
D|-----------------------------------------
A|-----------------------------------------
E|-----------------------------------------


y esas tardes de sol
bañados de sed y sudor
yo no las quiero cambiar
estoy seguro que este es mi lugar

este es mi lugar...

e|-------------------------------------------------------------
B|-----3---5-5----3h4h5-3v--3----------------------------------
G|-3-4-----5-5-------------------------7---7------5--5---------
D|-------------5-----------------------------------------------
A|------------------------------7h9-9--------5h7---------7s----
E|-------------------------------------------------------------


se trata de un barrio perdido
en donde crecí con amigos
es donde sigo estando
y se que por nada lo quiero cambiar

  Segundo solo
e|----3-3-----3-3---------------------------------------------
B|----3-3-----3-3-----------------------------------6------8--
G|-5b------5b-----5b--5ba-p3-5-3---------3v--3--5s7----7s9----
D|-------------------------------5-5---5----------------------
A|------------------------------------------------------------
E|------------------------------------------------------------

e|-------------------------------13--13--13----------
B|-8-8--11p8----8------11-13-13b-----13b-13ba-p11----
G|-----------10----s12----------------------------12-
D|---------------------------------------------------
A|---------------------------------------------------
E|---------------------------------------------------

e|-3-------3----------------------
B|---3-6b----6--6-----------------
G|--------------5ba-p3-5-3b-------
D|--------------------------5-3-5-
A|--------------------------------
E|--------------------------------
Suggest correction
Give kudos to tab author, rate the tab!
1 2 3 4 5
comments
print report bad tab
guest
Wanna post a correction for this tab? Suggest correction