Oops, an error
Loading. Please wait.

Buen Aire Tab

17 views 1 this week
no commentswrite comment
1 2 3 4 5
3 more votes to show rating
add to favorites
×
Save as Personal and add changes to this tab that will be seen only by you. Learn more ›
×
You can save this tab as Personal to edit and correct it or add notes. All changes will be seen only by you. Learn more »
save as personal
new!
launch autoscroll
font size
0
reset
how to read this tab
guitar tuner
Autoscroll
slow
fast
+/-
esc
set tempo
stop
INTRO

E5 - B5 - C#5   X4


e|-------------------------------------------------------------
B|-------------------------------------------------------------
G|-------------------------------------------------------------
D|-6h7p6-----------9--9-11p9----9-10-11--11h13-11-9-11s13------
A|-------7-7--7s11-----------11--------------------------------
E|-------------------------------------------------------------


e|-------------------------------------------------------------
B|-----------12---------------------------------12v------------
G|-------11-----11-11h13-11---8-----------11s13----------------
D|-11h13-------------------------11-9-9------------------------
A|-------------------------------------------------------------
E|-------------------------------------------------------------


e|-4---------------
B|---7------7------
G|------6s8---8s4--
D|-----------------
A|-----------------
E|-----------------


B5                    E5
Andar entero no es mi manera

B5                             E5
voy con el fuego ardiendo en mi cabeza

B5
siempre elegante en la noche

D5        F#5   D5
visto de seda


prendido por todos lados
viajando de lugar en lugar
si me queres encontrar
podes salir a buscarme

F#5
en cualquier lado me vas a encontrar

F#5                  E5
por que en el viento empezó

                B5
a viajar mi canción


Intro   pero termina asi:

e|-4----------14----------
B|---7---14b/----14//-12--
G|------------------------
D|------------------------
A|------------------------
E|------------------------


llevo mi vida sencilla y de a pasos
total mi cuerpo se sigue quemando
vendiéndote un porvenir
te voy durmiendo despacio


en cualquier lado me vas a encontrar...


  Solo
e|-------------------------------------------------------------
B|-----7------------------12---------------------7-------------
G|-6s8----8-6s4-4---11s13-----8-6s4-4------4-6b/---6//-4-------
D|-------------------------------------4h6---------------------
A|-------------------------------------------------------------
E|-------------------------------------------------------------

Solo de saxo sobre  B5


B5
y si en la calle todos me miran

B5
voy con cuidado esquivando policías

B5                E5                   B5
desaparezco en la esquina y vuelvo otra vez


en cualquier lado me vas a encontrar...


Final  (3:17)


e|-----------------------------9-------------------------------
B|------12-----------10-----9b---9b----------------------------
G|-11b/----11//-8----9ba-7----------------4----4v--------------
D|------------------------------------4h6----6-----------------
A|-------------------------------------------------------------
E|-------------------------------------------------------------
Suggest correction
Give kudos to tab author, rate the tab!
1 2 3 4 5
comments
print report bad tab
guest
Wanna post a correction for this tab? Suggest correction