Oops, an error
Loading. Please wait.

Buscar El Pan Tab

4 views 1 this week
no commentswrite comment
1 2 3 4 5
3 more votes to show rating
add to favorites
launch autoscroll
font size
0
reset
how to read this tab
guitar tuner
×
Best way to learn
"Buscar El Pan"
Autoscroll
slow
fast
+/-
esc
set tempo
stop
Intro

C#5 B5 D5

C#5 B5 A5

E5 A5 E5

B5 C#5 D5 A5


  E5                   A5
Cansado de buscar la salida

  E5                A5
cansado de buscar donde trabajar

    E5                    A5
Mordiéndote los labios miras a tu familia

       B5                                 E5
Y empezas a preguntarte como conseguir el pan


Saxo

E5 A5 E5  B5 C#5


   E5                      A5
Sentís la soga apretar el cuello

  E5                   A5
Y ya tocaste fondo, no queda de morfar

 E5                      A5
Ves que van muriendo tus sueños

B5
Te sentís jugado, no hay mas que pensar


D5            C5
 Tomar coraje, poner el pecho

B5                A5
 salir de caño a buscar el pan

D5           C5
 tomar coraje, poner el pecho

B5               A5
 salir de caño a buscar el pan


Saxo

B5 C#5 D5 A5

  Solo
e|-------------12-------------------------------------------
B|----------12----14--------------12--------12------12------
G|-12-12h13----------12--12-12h13----14--14------12-12b-----
D|--------------------------------------------------------14
A|----------------------------------------------------------
E|----------------------------------------------------------

e|------------12--------------------------|-------------|-----
B|---------------15p12----12--------------|-14b-14-12---|-----
G|----12--14b----------14-12b-----------14|-----------14|-X5--
D|-14-------------------------14-12-14----|-------------|-----
A|----------------------------------------|-------------|-----
E|----------------------------------------|-------------|-----

e|---------------------------------------------------14---------
B|-15b-15-14p12----12-----------12------12--14-14s16----16-14-12
G|--------------14-12b--12-14b/----14//-12----------------------
D|--------------------------------------------------------------
A|--------------------------------------------------------------
E|--------------------------------------------------------------

e|-------12------------15---15--15--15--15--15--15--15--
B|-12s14----14-12-10---15b/-15/-15/-15/-15/-15/-15/-15/-
G|------------------------------------------------------
D|------------------------------------------------------
A|------------------------------------------------------
E|------------------------------------------------------

e|--------------------------------------
B|-15p12----------------12--------------
G|-------14-12-14-12----12b-------------
D|-------------------14------14-12-12h14
A|--------------------------------------
E|--------------------------------------


Sabes que vas jugado a tu suerte
Y no tenes lugar en esta sociedad
Andas siempre esquivando a la muerte

tomar coraje, poner el pecho
salir de caño a buscar el pan
tomar coraje, poner el pecho
salir de caño a buscar el pan

  Final

   C#5       B5          D5    C#5     B5        A5
e|--------------------------------------------------
B|--------------------------------------------------
G|--------------------------------------------------
D|---------2--------------------------2-------------
A|-3h4-4------2--4-2--4-4s5----3h4-4----2--4-2--4---
E|------------------------------------------------5-
Suggest correction
Give kudos to tab author, rate the tab!
1 2 3 4 5
comments
print report bad tab
guest
You may want to rate the tab now too:
select rating
Wanna post a correction for this tab? Suggest correction