Oops, an error
Loading. Please wait.

Cuando Ellos Cantan Tab

3 views 1 this week
no commentswrite comment
1 2 3 4 5
3 more votes to show rating
add to favorites
launch autoscroll
font size
0
reset
how to read this tab
guitar tuner
Autoscroll
slow
fast
+/-
esc
set tempo
stop
Help us to improve Ultimate-Guitar.com Take our survey!
×
  Primer Solo
e|-------------------------------------------------------------
B|----------------10-8-10b--10-8--10-10---10-10p8---8-10-8-----
G|-5---5-4-5-7------------------------------------9------------
D|-------------------------------------------------------------
A|-------------------------------------------------------------
E|-------------------------------------------------------------

e|-----10----------10-10---------------------------------------
B|-10b----10b--10b--------10ba-p8-10-8-------------12-12-------
G|---------------------------------------9-7h9-7---12-12b------
D|--------------------------------------------------------14---
A|-------------------------------------------------------------
E|-------------------------------------------------------------

e|-----------------------------------3-3----3-3----3-
B|----------12-----------------------3-3----3-3----3-
G|----------12---5--5-4-5-7--7ba-7-------5b-----5b---
D|-12-12h14------------------------------------------
A|---------------------------------------------------
E|---------------------------------------------------

e|-8-8--7--5--3--s5------5-----------------------------------
B|-8-8--7--5--3--s5------5-----------------------------------
G|--------------------7b---7ba-5----------------7-5-7ba-5-7v-
D|--------------------------------7---5h7-7-5----------------
A|----------------------------------7------------------------
E|-----------------------------------------------------------

e|---------------------
B|---------------------
G|-7-7p5----5-7-5--s9--
D|-------7-------------
A|---------------------
E|---------------------


  Segundo Solo

  C5           D5  G5         C5     A5            C5       G5
e|-------------------------------------------------------------
B|-------------------------------------------------------------
G|-------------------------------------------------------------
D|-------------------------------------------------------------
A|-3---3--2--3--5------0--2--5--3--2--0-----------2-3---2-0----
E|------------------3--------------------3--5---------------3-3

  C5-B5-C5-G5               C5-B5-C5-G5
e|----------3----3-3----3-3----------3-----3-3----3-3--
B|----------3----3-3----3-3----------3-----3-3----3-3--
G|------------5b-----5b-----------------5b-----5b------
D|-----------------------------------------------------
A|-----------------------------------------------------
E|-----------------------------------------------------

  C5-B5-C5-G5                 C5-B5-C5-G5
e|----------3----3-3-----3-3------------3----------------------
B|----------3----3-3-----3-3------------3----------------------
G|------------5b------5b---------------------------------------
D|-------------------------------------------------------------
A|-------------------------------------------------------------
E|-------------------------------------------------------------
Suggest correction
Give kudos to tab author, rate the tab!
1 2 3 4 5
comments
print report bad tab
guest
You may want to rate the tab now too:
select rating
Wanna post a correction for this tab? Suggest correction