Oops, an error
Loading. Please wait.

El Mejor Cazador Tab

24 views 3 this week
no commentswrite comment
1 2 3 4 5
3 more votes to show rating
add to favorites
launch autoscroll
font size
0
reset
how to read this tab
guitar tuner
×
Best way to learn
"El Mejor Cazador"
Autoscroll
slow
fast
+/-
esc
set tempo
stop
  Intro

  D5                          B5              D5
e|------------------------------------------------
B|-----10------10--10s8--8------------------------
G|-s11--------s11--11s9--9s7--7h9-----------------
D|--------------------------------9----2ba-0---0--
A|-------------------------------------------2----
E|------------------------------------------------
                             G5             A5
e|--------------------------------------------------
B|-----10---s10-10s8--------------------------------
G|-s11------s11-11s9---9s7-9--9s11--------2-4ba-2-2-
D|---------------------------------9---s4-----------
A|--------------------------------------------------
E|--------------------------------------------------
       G5           A5                      D5
e|------------------------------------------10--
B|------------------------------------------10--
G|-----7---7---9-7--9ba-----7--------11s12------
D|-7h9---9----------------9------s12------------
A|----------------------------------------------
E|----------------------------------------------


D5
Al mejor cazador

                 A5
Se le escapo la liebre

D5                        A5
La mejor liebre se le escapo

D5
Eso fue por confiar

                  A5
Demasiado en su suerte

D5
Y esta vez para siempre

          A5
se le escapo


G5                         D5
Por ser muy frio y calculador

                                    G5
no se dio cuenta que estaba en un error

                      D5
por querer todo a su favor

                          A5
y subestimar al otro jugador

                           A5
al mejor cazador la liebre

                   D5
esta vez se le escapo


  D5                          B5              D5
e|------------------------------------------------
B|-----10------10--10s8--8------------------------
G|-s11--------s11--11s9--9s7--7h9-----------------
D|--------------------------------9----2ba-0---0--
A|-------------------------------------------2----
E|------------------------------------------------
                             G5             A5
e|--------------------------------------------------
B|-----10---s10-10s8--------------------------------
G|-s11------s11-11s9---9s7-9--9s11--------2-4ba-2-2-
D|---------------------------------9---s4-----------
A|--------------------------------------------------
E|--------------------------------------------------
       G5           A5                      D5
e|------------------------------------------10--
B|------------------------------------------10--
G|-----7---7---9-7--9ba-----7--------11s12------
D|-7h9---9----------------9------s12------------
A|----------------------------------------------
E|----------------------------------------------

D5
y tubo que cambiar

                A5
el destino deseado

D5                             A5
aprendió a transar con su corazón

D5
se conforma en cazar

                A5
lo que tiene a mano

D5                      A5
y a la mejor liebre la dejo


escapar...


G5                         D5
Por ser muy frio y calculador

                                    G5
no se dio cuenta que estaba en un error

                      D5
por querer todo a su favor

                          A5
y subestimar al otro jugador             Riff 1 :

                            Riff 1     e|------12---------------
al mejor cazador la liebre             B|-12b/---------12//-10--

A5                         Riff 2
al mejor cazador la liebre             Riff 2 :

A5                         Riff 3      e|-----12--------12----------------
al mejor cazador la liebre             B|-12b------12b/----12//-p10----10-
                                       G|---------------------------11----
                   D5
esta vez se le escapo                  Riff 3 :
                                       e|-------------------------
                                       B|-------------------------
                                       G|-9b--9v------------------

   D5                          B5              D5
e|------------------------------------------------
B|-----10------10--10s8--8------------------------
G|-s11--------s11--11s9--9s7--7h9-----------------
D|--------------------------------9----2ba-0---0--
A|-------------------------------------------2----
E|------------------------------------------------
                             G5             A5
e|--------------------------------------------------
B|-----10---s10-10s8--------------------------------
G|-s11------s11-11s9---9s7-9--9s11--------2-4ba-2-2-
D|---------------------------------9---s4-----------
A|--------------------------------------------------
E|--------------------------------------------------
       G5           A5                      D5
e|------------------------------------------10--
B|------------------------------------------10--
G|-----7---7---9-7--9ba-----7--------11s12------
D|-7h9---9----------------9------s12------------
A|----------------------------------------------
E|----------------------------------------------
Suggest correction
Give kudos to tab author, rate the tab!
1 2 3 4 5
comments
print report bad tab
guest
You may want to rate the tab now too:
select rating
Wanna post a correction for this tab? Suggest correction