Oops, an error
Loading. Please wait.

El Pecado Es No Pecar Tab

7 views 1 this week
no commentswrite comment
1 2 3 4 5
3 more votes to show rating
add to favorites
launch autoscroll
font size
0
reset
how to read this tab
guitar tuner
Autoscroll
slow
fast
+/-
esc
set tempo
stop
Help us to improve Ultimate-Guitar.com Take our survey!
×
  Primer Solo
e|---------------------------------------------------------------
B|---------------------------------------------------------------
G|---------------------------------------------------3h5-6--3-3--
D|---------------------------------3---1s3-6---3----------------6
A|--------1s3-6---3-6--1s3---1s3-6-------------------------------
E|--4---4------------------4----------------------4--------------

e|-----------------------------------------------------11-11--11-
B|------------------------------s6--------9--9-----11b----11b-11b
G|---3s5-8--5-8--3h5p3----3s5-8------8h10------10----------------
D|-6-------------------6-----------------------------------------
A|---------------------------------------------------------------
E|---------------------------------------------------------------

e|-11----11------------------------------------------------
B|-11ba--11b--9s8--8---------------------------------------
G|-------------------10-8b----8-10-------------------------
D|-------------------------10--------8-8h10p8----8-8-------
A|--------------------------------------------11-----11----
E|---------------------------------------------------------

e|----------------11-------------------------------11--------------
B|------------11b----11b-----13---------13-----11b----11ba---------
G|-----8---------------------13v--------13------------------8-9-10v
D|-s10----10----------------------13h15----15----------------------
A|-----------------------------------------------------------------
E|-----------------------------------------------------------------

  Segundo Solo (2:57)

e|-11---------11---11----------------11---------11-----11----11-
B|-11ba-9-11b------11ba----9------9--11ba-9-11b----11b----11b---
G|----------------------10-----10-------------------------------
D|--------------------------------------------------------------
A|--------------------------------------------------------------
E|--------------------------------------------------------------

e|----------------------------------------
B|-11ba-----------------------------------
G|-----------6-5v----6-5v----6-5v----6-5v-
D|---------6-------6-------6-------6------
A|----------------------------------------
E|----------------------------------------
Suggest correction
Give kudos to tab author, rate the tab!
1 2 3 4 5
comments
print report bad tab
guest
You may want to rate the tab now too:
select rating
Wanna post a correction for this tab? Suggest correction