Oops, an error
Loading. Please wait.

El Pibe Chords

6 views 1 this week
no commentswrite comment
1 2 3 4 5
3 more votes to show rating
add to favorites
launch autoscroll
font size
0
reset
transpose
0
reset
simplify chords
display chords
guitar tuner
×
Best way to learn
"El Pibe"
Autoscroll
slow
fast
+/-
esc
set tempo
stop
RIFF del principio (se lo hace arpegiando)

e|-------------------------------------------------------------------|
B|------2-----3-------2-----3-------2-----3--------------------------|
G|---------------------------------------------5---4---2-------------|  X2
D|----2-----2-------2-----2-------2-----2----0---0---0---------------|
A|--0-----0-------0-----0-------0-----0------------------3-4---------|
E|-------------------------------------------------------------------|

(A-D-A-D-A-D-G) X2

    A
El pibe tiene ganas de volverla a ver
   D7                  G
y sale con amigos a buscarla a la calle.
         A
No se acuerda que paso la ultima vez
      D7                     G5
pero sabe que es poco y no quiere conformarse.

 A5
Ella va a bailar hasta el amanecer
   D5                         G5
y todos cuando pasan se dan vuelta a ver
   A5
Es una chica difícil de convencer
      D5                   G5
y el pibe se prepara para poder hablarle.

 E
Toma un trago para ver mejor
F#               D
 y lentamente empieza a acercarse
 E
ella lo mira y el siente temor
F#                 G        C
baja la vista y piensa en volver mas tarde.


SOLO DE GUITARRA: BASE EN : (A-D-A-D-A-D-G) X2

 A7
Pasa la noche y no puede hablar
  D7                       G
busca las palabras en la barra del bar
A
 desde muy lejos la mira bailar
     D7                     G5
su tiempo se acaba y ya no puede esperar mas

      A5
Y tambaleando se empieza a acercar
 D5                         G5
sus piernas lo llevan a cualquier lugar
   A5
es una chica difícil de convencer
      D5                   G5
y el pibe se prepara para poder hablarle


 E
Toma un trago para ver mejor
F#               D
 y lentamente empieza a acercarse
 E
ella lo mira y el siente temor
F#                 D
baja la vista y piensa que es tarde

  E                                       F#
Y si las cosas a veces las cosas me salen mal
                   D
ya no me importa, sigo para adelante
E                                  F#
 y si una chica ya no quiere verme mas
                   G        C
con mis amigos me voy a cualquier parte

(A-D-A-D-A-D-G) X4

FINAL:

e|------------------------------------------------------------------|
B|------2-----3-------2-----3-------2-----3-------------------------|
G|---------------------------------------------5---4---2------------|  X2
D|----2-----2-------2-----2-------2-----2----0---0---0--------------|
A|--0-----0-------0-----0-------0-----0------------------3-4--------|
E|------------------------------------------------------------------|


TERMINA EN A5

----------------------------------------------------------

CUALQUIER DUDA AGREGUEN NICO.25RNR@
Suggest correction
Give kudos to tab author, rate the tab!
1 2 3 4 5
comments
print report bad tab
guest
You may want to rate the tab now too:
select rating
Wanna post a correction for this tab? Suggest correction