Oops, an error
Loading. Please wait.

El Pibe Tab

16 views 1 this week
no commentswrite comment
1 2 3 4 5
3 more votes to show rating
add to favorites
launch autoscroll
font size
0
reset
how to read this tab
guitar tuner
×
Best way to learn
"El Pibe"
Autoscroll
slow
fast
+/-
esc
set tempo
stop
  Intro


e|------------------|----|------------------
B|-----2-----------3|----|------------------
G|---0---0----------|-X3-|---5---4---2------
D|----------3s4-5---|----|-0---0---0--------
A|-0----------------|----|--------------3-4-
E|------------------|----|------------------


e|------12------------------------10-----------------12--12--12-
B|-12b/----12//-p10----10---12b/-----12//-p10----10--12b-12b-12b
G|------------------11------------------------11----------------
D|--------------------------------------------------------------
A|--------------------------------------------------------------
E|--------------------------------------------------------------


e|-0---0-----------------------------------------
B|---8---7-0-5-0-3-0-----------------------------
G|---------------------4b-4b-4b-4ba-p2---2---2-2-
D|-------------------------------------4---4-----
A|-----------------------------------------------
E|-----------------------------------------------


e|----------------------------------------------
B|-------------5--------------------------------
G|---2---2-4b/---4//-p2---2----5b-5-2---------2-
D|-4---4----------------4---------------2-2h4---
A|----------------------------------------------
E|----------------------------------------------


  Primer Solo

e|--12--12--12---12---------------------------------12---------
B|--12b-12b-12b--12ba-p10----10----10-------10-12b/----12//-p10
G|------------------------11----11-------11--------------------
D|-------------------------------------------------------------
A|-------------------------------------------------------------
E|-------------------------------------------------------------


e|-------------------------5-------5---------------------------
B|----10-12-12b-12-10--------5-8b----8----5--------------------
G|-11-------------------7b-------------7b-5---------------5-7b-
D|------------------------------------------7-5-7---7-5-7------
A|-------------------------------------------------------------
E|-------------------------------------------------------------


e|-----------------------------------
B|-8----------7-7-5------------------
G|---7ba-p5---7-7-5---------------2--
D|----------7-------7-5-7-----2h4----
A|--------------------------4--------
E|-----------------------------------


  Segundo solo

e|--12--12--12---12---------------------------------12---------
B|--12b-12b-12b--12ba-p10----10----10-------10-12b/----12//-p10
G|------------------------11----11-------11--------------------
D|-------------------------------------------------------------
A|-------------------------------------------------------------
E|-------------------------------------------------------------

e|----------0---0--------------------------------------------
B|----10------8---7-0-5-0-3-0--2-2--3-2--3s5--3h5p3-2-3-2----
G|-11-----------------------------------------------------4-2
D|-----------------------------------------------------------
A|-----------------------------------------------------------
E|-----------------------------------------------------------


e|-----------------------------------
B|--------------2------7-5-----------
G|-------2--2h4---4-2-------------2--
D|-4p2-4--------------------2-2h4----
A|-----------------------------------
E|-----------------------------------
Suggest correction
Give kudos to tab author, rate the tab!
1 2 3 4 5
comments
print report bad tab
guest
You may want to rate the tab now too:
select rating
Wanna post a correction for this tab? Suggest correction