Oops, an error
Loading. Please wait.

En El Bar (Las Piedras) Tab

6 views 1 this week
no commentswrite comment
1 2 3 4 5
3 more votes to show rating
add to favorites
launch autoscroll
font size
0
reset
how to read this tab
guitar tuner
×
Best way to learn
"En El Bar (las Piedras)"
Autoscroll
slow
fast
+/-
esc
set tempo
stop
Intro: A5 - A5 - A7 (un golpe cada nota)

  EN CADA ACORDE DEL TEMA HACE ALGO ASI:
e|-------------------------
B|-------------------------
G|-------------------------
D|-2-2--4-4--5-5--4-4------
A|-0-0--0-0--0-0--0-0------
E|-------------------------
Menos en F# // si cambia de nota antes de poder hacer este riff entero,
se toca la mitad del riff


No puedo dejar de aspirar

                A5
De mi vida lo mejor

      E5
No puedo dejar de jalar

                     A5
Fumando en esta canción

   D5
No puedo dejar de tomar

               F#
Y darte mi corazón

       A5          E5
No puedo dejar de fumar

                  A5
Por que no tengo razón...


No puedo dejar de picar
Con alegría, emoción
No puedo dejar de peinarte
solo por diversión
No puedo dejar de encenderte
Me gusta tu calor
No puedo alejarme un rato
Por que empieza el temblor...

A5
Te busco


Desesperado por las calles

       A5
Yo te busco

      E5
A la vuelta de la esquina

          D5
Yo te busco

       F#         A5         E5
En el bar, todos dicen de temprano

          A5
Que no estas...

e|-----5------3-----5-----3------5-----3-----5-----3-----------
B|--------------------------------------------------------5----
G|-s6-----s4-----s6----s4----s6-----s4----s6---s4--------------
D|-----------------------------------------------------s6------
A|-------------------------------------------------------------
E|-------------------------------------------------------------


e|---------------------------------------------------------------------
B|--5-----7-5---------5--5-----------10-10----10------10-12ba-p10----10
G|----7v--7-5b--------5b-5b------s11-------11------11-------------11---
D|6------------7-5h7--------7------------------------------------------
A|---------------------------------------------------------------------
E|---------------------------------------------------------------------


e|------------------------------------------------15b--15b/-15//-p13---
B|-s17-14------17-14------17-14-----17-14-----13---------------------15
G|--------14---------14---------14--------14---------------------------
D|---------------------------------------------------------------------
A|---------------------------------------------------------------------
E|---------------------------------------------------------------------


e|----------------------------------------
B|-13b----13b---------13-15ba-p13----13b--
G|-----14-----14---14-------------14------
D|----------------------------------------
A|----------------------------------------
E|----------------------------------------


  Final (2:05)
e|---------------------------5--8--8---5-----------------------
B|-7-5-------------------5-7----7b-7b--5-----------------------
G|-----7-6--7-6-4-2---7----------------------------------------
D|-------------------------------------------------------------
A|-------------------------------------------------------------
E|-------------------------------------------------------------
Suggest correction
Give kudos to tab author, rate the tab!
1 2 3 4 5
comments
print report bad tab
guest
You may want to rate the tab now too:
select rating
Wanna post a correction for this tab? Suggest correction