Oops, an error
Loading. Please wait.

Encerrado En Mi Soledad Tab

9 views 1 this week
no commentswrite comment
1 2 3 4 5
3 more votes to show rating
add to favorites
launch autoscroll
font size
0
reset
how to read this tab
guitar tuner
Autoscroll
slow
fast
+/-
esc
set tempo
stop
Help us to improve Ultimate-Guitar.com Take our survey!
×
Intro

F# - E - F# - E


B          A             E
   Dando vueltas y mas vueltas


gira este loco planeta

B        A                   E
  sin llegar a ponernos deacuerdo


sin encontrar la manera

A
y yo encerrado en mi soledad


tan alejado de la cuidad

          E
buscando entrar en mi realidad

         A
sin una ayuda para zafar


F# - E - F# - E


B          A                 E
  la sociedad esta medio enferma


es lo que todos comentan

B              A              E
   siempre buscando la misma mierda


para poder sobrevivir


A
y cuanto tiempo podré aguantar


si mi bolsillo agujereado esta

              E
no tengo un peso para gastar

        A
y mis heridas aun sin curar


F# - E - F# - E


  Solo
e|----------------------------------------
B|----------------------------------------
G|--6b---6ba-4-4-------4----6b--6ba--4-4--
D|-----------------4h6---6----------------
A|----------------------------------------
E|----------------------------------------


A
y yo encerrado en mi soledad


tan alejado de la cuidad

          E
buscando entrar en mi realidad

         A
sin una ayuda para zafar

  Segundo Solo
e|---------------------------------------------7----7-7--------
B|-----------------------4//--------5s4--------7h9--7-7--------
G|-----------4-6ba-4-4-------x--4-------4s6--------------------
D|------4h6----------------------------------------------------
A|-4h6---------------------------------------------------------
E|-------------------------------------------------------------

e|---------------------------------------------------12--------
B|-7----7-7------------------------------10------12b-----------
G|-6h8--6-6---6ba-4---4s6--6s8--8s9-9s11-----------------------
D|-------------------------------------------------------------
A|-------------------------------------------------------------
E|-------------------------------------------------------------

A
y cuanto tiempo podré aguantar


si mi bolsillo agujereado esta

              E
no tengo un peso para gastar

        A
y mis heridas aun sin curar


e|---------9--9-9-9s7--7s6s7-----------------------------------
B|-7--9s11---------------------7--9b-9ba-7-7s5--7-7------------
G|-------------------------------------------------------------
D|-------------------------------------------------------------
A|-------------------------------------------------------------
E|-------------------------------------------------------------
Suggest correction
Give kudos to tab author, rate the tab!
1 2 3 4 5
comments
print report bad tab
guest
You may want to rate the tab now too:
select rating
Wanna post a correction for this tab? Suggest correction