Oops, an error
Loading. Please wait.

Ganas De Rockear Tab

10 views 1 this week
no commentswrite comment
1 2 3 4 5
3 more votes to show rating
add to favorites
launch autoscroll
font size
0
reset
how to read this tab
guitar tuner
×
Best way to learn
"Ganas De Rockear"
Autoscroll
slow
fast
+/-
esc
set tempo
stop
  Primer Solo
e|------------------------------3----3-3-----------------------
B|-6---3------------------------3----3-3--6p3-------------5-3--
G|-5ba-3b--5p3-----3-5b-3b--------5b----------5--5ba-p3---5-3b-
D|-------------3h5----------5---------------------------5------
A|-------------------------------------------------------------
E|-------------------------------------------------------------

e|--------------
B|-----3--------
G|-----3b--3-5v-
D|5-5-----------
A|--------------
E|--------------

 Bb5                      F5
    No me preguntes como hago
e|--------------------------------8------------
B|-----------------------------8b---8ba-6------
G|---------------------------------------------
D|-----------------------------------------8---
A|---------------------------------------------
E|---------------------------------------------

 Bb5                    F5
   Para estar en todos lados
e|------------------------------8------------------------------
B|---------------------------8b---8ba-6------------------------
G|-------------------------------------------------------------
D|-------------------------------------------------------------
A|-------------------------------------------------------------
E|-------------------------------------------------------------

             Bb5                 F5
                No ves que sigo rodando?
e|----13-------------------13---------------8------------------
B|13b----13b-----------------------------8b----8ba-6-----------
G|-------------------------------------------------------------
D|-------------------------------------------------------------
A|-------------------------------------------------------------
E|-------------------------------------------------------------

        C5                        G5          D5
          Porque mi cuerpo nunca quiere descansar, quiere rockear
e|-------------------------------------------------------------
B|----8-------------------------------------------10-----------
G|-7b------------------------------------------9b--------------
D|-------------------------------------------------------------
A|-------------------------------------------------------------
E|-------------------------------------------------------------


  Segundo Solo
e|-------3-----------------------1p0-1p0-1-3--6p3-5p3----------
B|3---5--3v---------------3------1p0-1p0-1-3--6p3-5p3----------
G|3---5-------3b----------3b-----------------------------------
D|--5------------5-5p3-------5---------------------------------
A|---------------------5---------------------------------------
E|-------------------------------------------------------------

e|------15-----------------------------------------------------
B|---------18p15-17-15-17--17-------17-15----------------------
G|-17b-----------17-15-17--17ba-p15-17-15b---------------------
D|-----------------------------------------17-17v--------------
A|-------------------------------------------------------------
E|-------------------------------------------------------------

e|-------------------------18-----18-----18--------------------
B|-15--15--15-------15-17-----17-----17-------17-15------------
G|-15b-15b-15b------15-17b----17b----17b------17-15b-----------
D|--------------17-----------------------------------17-15v----
A|-------------------------------------------------------------
E|-------------------------------------------------------------
Suggest correction
Give kudos to tab author, rate the tab!
1 2 3 4 5
comments
print report bad tab
guest
You may want to rate the tab now too:
select rating
Wanna post a correction for this tab? Suggest correction