Oops, an error
Loading. Please wait.

Hasta Llegar A Palmar Bass

24 views 3 this week
no commentswrite comment
1 2 3 4 5
3 more votes to show rating
add to favorites
launch autoscroll
font size
0
reset
guitar tuner
Autoscroll
slow
fast
+/-
esc
set tempo
stop
Alto tema de Motor loco, es bastante fácil en Bajo.
Escúchenlo para agarrarle los tiempos.
Cualquier duda o corrección, elfacsa@

Primero entra la guitarra sola, a los 7 segundo entra el Bajo.

Intro:
G---------------------------------------------------|
D---------------------------------------------------|
A--------------5-5--7-5-----------------------------|
E---7--7-5/0--------------7--7-5-5-5--3--3-3--3--3--|

G---------------------------------------------------|
D---------------------------------------------------|
A--------------5-5--7-5-----------------------------|
E---7--7-5/0--------------7--7-5-5-5--3-------------|

Verso:
De tanto andar por las calles?
G---------------------------------------------------|
D---------------------------------------------------|
A---------------------------------------------------|
E-7--7--7-77-7--7-7-7?7/5--5--5-55-5--5-5-5?5-------|

Esto acabando con mi cuerpo?
G---------------------------------------------------|
D---------------------------------------------------|
A---------------------------------------------------|
E-7--7--7-77-7--7-7-7?7/5--5--5-55-5--5-5-5?5-------|

Preverso:
G---------------------------------------------------|
D-----------------------------------------5-5--5-5--|
A--------------5-5--7-5-----------------------------|
E?11/7--7-5/0--------------7--7-5-5-5--3--3----3---3|

G---------------------------------------------------|
D---------------------------------------------------|
A--------------5-5--7-5-----------------------------|
E---7--7-5/0--------------7--7-5-5-5--3-------------|

Verso:
Tengo q sentarme y ponerme a pensar?
G---------------------------------------------------|
D---------------------------------------------------|
A---------------------------------------------------|
E-7--7--7-77-7--7-7-7?7/5--5--5-55-5--5-5-5?5-------|

Si no freno un poco perderé la razón?
G---------------------------------------------------|
D---------------------------------------------------|
A---------------------------------------------------|
E-7--7--7-77-7--7-7-7?7/5--5--5-55-5--5-5-5?5-------|


Estribillo:
G---------------------------------------------------|
D-----------------------------------------5-5--5-5--|
A--------------5-5--7-5-----------------------------|
E?11/7--7-5/0--------------7--7-5-5-5--3--3----3---3|

Sigo, me doy vuelta y sigo igual
G-----------------------------------------------------------|
D-----------------------------------------------------------|
A--------------5-5--7-5-------------------------------------|
E---7--7-5/0--------------7--7-5-5-5--3-3/15--15-15-?15-15/7|

Sigo, me doy vuelta y sigo igual
G---------------------------------------------------|
D---------------------------------------------------|
A--------------5-5--7-5-----------------------------|
E---7--7-5/0--------------7--7-5-5-5--3-------------|

En el solo de guitarra hace esto:

G---------------------------------------------------|
D---------------------------------------------------|
A---------------------------------------------------|
E-7--7--7-77-7--7-7-7?7/5--5--5-55-5--5-5-5?5-------|

G---------------------------------------------------|
D---------------------------------------------------|
A---------------------------------------------------|
E-7--7--7-77-7--7-7-7?7/5--5--5-55-5--5-5-5?5-------|

G---------------------------------------------------|
D-----------------------------------------5-5--5-5--|
A--------------5-5--7-5-----------------------------|
E?11/7--7-5/0--------------7--7-5-5-5--3--3----3---3|

G---------------------------------------------------|
D---------------------------------------------------|
A--------------5-5--7-5-----------------------------|
E---7--7-5/0--------------7--7-5-5-5--3-------------|


Verso:
Será que mi alma cuando estoy dormido?
G---------------------------------------------------|
D---------------------------------------------------|
A---------------------------------------------------|
E-7--7--7-77-7--7-7-7?7/5--5--5-55-5--5-5-5?5-------|

Si me pasan cosas que ya he vivido?
G---------------------------------------------------|
D---------------------------------------------------|
A---------------------------------------------------|
E-7--7--7-77-7--7-7-7?7/5--5--5-55-5--5-5-5?5-------|

Mi alma y mi cuerpo ya no quieren más?
G---------------------------------------------------|
D---------------------------------------------------|
A---------------------------------------------------|
E-7--7-7--7-7--7-7--7-7/5--5-5--5-5--5-5?5/7--------|

Estribillo:
G---------------------------------------------------|
D-----------------------------------------5-5--5-5--|
A--------------5-5--7-5-----------------------------|
E?11/7--7-5/0--------------7--7-5-5-5--3--3----3---3|

Sigo, me doy vuelta y sigo igual
G-----------------------------------------------------------|
D-----------------------------------------------------------|
A--------------5-5--7-5-------------------------------------|
E---7--7-5/0--------------7--7-5-5-5--3-3/15--15-15-?15-15/7|

Sigo, me doy vuelta y sigo igual
G---------------------------------------------------|
D---------------------------------------------------|
A--------------5-5--7-5-----------------------------|
E---7--7-5/0--------------7--7-5-5-5--3--3-3--3--3--|

G-----------------------------------------------------------|
D-----------------------------------------------------------|
A--------------5-5--7-5-------------------------------------|
E---7--7-5/0--------------7--7-5-5-5--3-3/15--15-15-?15-15/7|

G---------------------------------------------------|
D-----------------------------------------5-5--5-5--|
A--------------5-5--7-5-----------------------------|
E?11/7--7-5/0--------------7--7-5-5-5--3--3----3---3|

Sigo, me doy vuelta y sigo igual
G-----------------------------------------------------------|
D-----------------------------------------------------------|
A--------------5-5--7-5-------------------------------------|
E---7--7-5/0--------------7--7-5-5-5--3-3/15--15-15-?15-15/7|

Sigo, me doy vuelta y sigo igual
G---------------------------------------------------|
D---------------------------------------------------|
A--------------5-5--7-5-----------------------------|
E---7--7-5/0--------------7--7-5-5-5--3-------------|

hasta llegara  palmar
G---------------------------------------------------|
D---------------------------------------------------|
A---------------------------------------------------|
E?3/7-----------------------------------------------|

Espero que les sirva!! un abrazo!! Aguante La Inoxidable Rocanroll!!
Suggest correction
Give kudos to tab author, rate the tab!
1 2 3 4 5
comments
print report bad tab
guest
Wanna post a correction for this tab? Suggest correction