Oops, an error
Loading. Please wait.

Hasta Llegar A Palmar Tab

6 views 1 this week
no commentswrite comment
1 2 3 4 5
3 more votes to show rating
add to favorites
launch autoscroll
font size
0
reset
how to read this tab
guitar tuner
×
Best way to learn
"Hasta Llegar A Palmar"
Autoscroll
slow
fast
+/-
esc
set tempo
stop
HASTA LLEGAR A PALMAR- MOTOR LOCO

  Riff 1
e|--------------------------------------------
B|--------------------------------------------
G|-------------7--7s9--9s7-7------------------
D|-5--5---7----7--7s9--9s7-7----9--9--7---5---
A|-5--5---7----5--5s7--7s5-5----9--9--7---5---
E|-7--7---5s--------------------7--7--5---3---


  Intro WAH WAH
e|---------------------------------------
B|-----------------10--12--10------------
G|-9h11-9----9h11-------------9h11-9--7--
D|---------------------------------------
A|---------------------------------------
E|---------------------------------------

  Primer estribillo
                            sigo   me doy vuelta y sigo igual
e|-------------------------------------------------------------
B|--------------------------------------10-12-10---------------
G|---9h11--9---7-------------------9h11------------9h11--7-----
D|-----------------9--7--9-------------------------------------
A|-------------------------------------------------------------
E|-------------------------------------------------------------

  sigo      me  doy  vuelta  y sigo igual
e|---------------------------------------
B|-----------------10--12--10------------
G|-9h11-9----9h11-------------9h11-9--7--
D|---------------------------------------
A|---------------------------------------
E|---------------------------------------


  Solo
e|-------------------------------------------------------------
B|-------------------------------------------------------------
G|-9b---9b-9b-9ba--9p7----------------------7--9--7--9p7-9b----
D|---------------------9----9---------7-9----------------------
A|-----------------------------7h8h9---------------------------
E|-------------------------------------------------------------


e|----------------------7----7----7----7----7----7----7----7---
B|----------------------10b--10/--10/--10/--10/--10/--10/--10/-
G|-9/-9/-9/-9//-p7---------------------------------------------
D|-----------------9-------------------------------------------
A|-------------------------------------------------------------
E|-------------------------------------------------------------


e|---------------------------------------------------------------
B|----------------------------------------------------10---------
G|-11-9-7-------------7-9ba-p7--------7-9ba-p7----s11----11-9-7--
D|---------9-7-9----9----------9----9----------9----------------9
A|---------------------------------------------------------------
E|---------------------------------------------------------------

Segundo estribillo


e|-----------------------------------------
B|-----------------------------------------
G|-9h11-9---9ba-p7-----7----------7--------
D|-----------------9-----9--7-9-----9-7-9--
A|-----------------------------------------
E|-----------------------------------------

  sigo      me  doy  vuelta  y sigo igual
e|---------------------------------------
B|-----------------10--12--10------------
G|-9h11-9----9h11-------------9h11-9--7--
D|---------------------------------------
A|---------------------------------------
E|---------------------------------------

  sigo      me  doy  vuelta  y sigo igual
e|---------------------------------------
B|-----------------10--12--10------------
G|-9h11-9----9h11-------------9h11-9--7--
D|---------------------------------------
A|---------------------------------------
E|---------------------------------------
Suggest correction
Give kudos to tab author, rate the tab!
1 2 3 4 5
comments
print report bad tab
guest
You may want to rate the tab now too:
select rating
Wanna post a correction for this tab? Suggest correction