Oops, an error
Loading. Please wait.

Hora De Arrancar Bass

12 views 1 this week
no commentswrite comment
1 2 3 4 5
3 more votes to show rating
add to favorites
×
Save as Personal and add changes to this tab that will be seen only by you. Learn more ›
×
You can save this tab as Personal to edit and correct it or add notes. All changes will be seen only by you. Learn more »
save as personal
new!
launch autoscroll
font size
0
reset
guitar tuner
Autoscroll
slow
fast
+/-
esc
set tempo
stop
Intro con el bajo:

G----12--12--10--9--10--9------------|
D-------------------------10---------|
A----------------------------10------|
E------------------------------------|

G----12--12--10--9--10--9----12------|
D-------------------------10---------|
A------------------------------------|
E------------------------------------|


Despues del Intro arrancan el bajo haciendo esto:

G-------------------------------------|
D----5---5---3---2---3---2------------|
A---------------------------3---------|
E------------------------------3------|

G-------------------------------------|
D----5---5---3---2---3---2-----5------|
A---------------------------3---------|
E-------------------------------------|

Bueno espero que les sirva la tab
cualquier duda agreguenmen mula_385@
Saludos!
Suggest correction
Give kudos to tab author, rate the tab!
1 2 3 4 5
comments
print report bad tab
guest
Wanna post a correction for this tab? Suggest correction