Oops, an error
Loading. Please wait.

Hora De Arrancar Tab

22 views 1 this week
no commentswrite comment
1 2 3 4 5
3 more votes to show rating
add to favorites
launch autoscroll
font size
0
reset
how to read this tab
guitar tuner
Autoscroll
slow
fast
+/-
esc
set tempo
stop
Help us to improve Ultimate-Guitar.com Take our survey!
×
Riff Principal

  Guitarra 1
e|-----------------------------------------------------------
B|-----------------------------------------------------------
G|-12-12-10-9--9h10-9------------12-12-10-9-9h10-9----12-12--
D|--------------------10---------------------------10--------
A|-----------------------10-10-------------------------------
E|-----------------------------------------------------------

  Guitarra 2
e|------------------------------------------------
B|------------------------------------------------
G|------------------------------------------------
D|-5-5-3-2-2h3-2----------5-5-3-2-2h3-2---5-5-----
A|---------------3----------------------3---------
E|------------------3-3---------------------------


  Riffs

  1                 2
e|----------------|--------------------------------------------------
B|-66666666666666-|--------------------------------------------------
G|-77777777777777-|------------0---------------------------0---------
D|----------------|-0-2p0-3p0----3-2p0-3p0-2p0---0-2p0-3p0---3-2p0-3v
A|----------------|--------------------------------------------------
E|----------------|--------------------------------------------------

G
Si tienes ganas de hacer algo para estar bien

G  Riff 1
Solo enciende tu cuerpo, empieza a enloquecer


Poniendo en marcha tu mente que es hora de arrancar
En el medio de la noche nadie te va a parar


C5
Y si quieres más acción
                                       G5  Riff 2 X2
con un poco de atención la vas a encontrar

C5
Si queres mas diversión
                                  G5        Riff 2 X2
con un poco de intención la vas a encontrar


  Final
e|-----10-----10------10------------------------------------------------
B|-10b----10b-----10b----10ba-8-----8-10ba-8-8-----3h6-5----------------
G|--------------------------------9------------9---------5--------------
D|---------------------------------------------------------7-5-5---5-5-5
A|----------------------------------------------------------------------
E|----------------------------------------------------------------------
Suggest correction
Give kudos to tab author, rate the tab!
1 2 3 4 5
comments
print report bad tab
guest
You may want to rate the tab now too:
select rating
Wanna post a correction for this tab? Suggest correction