Oops, an error
Loading. Please wait.

Lindo Descontrol Tab

7 views 1 this week
no commentswrite comment
1 2 3 4 5
3 more votes to show rating
add to favorites
×
Save as Personal and add changes to this tab that will be seen only by you. Learn more ›
×
You can save this tab as Personal to edit and correct it or add notes. All changes will be seen only by you. Learn more »
save as personal
new!
launch autoscroll
font size
0
reset
how to read this tab
guitar tuner
Autoscroll
slow
fast
+/-
esc
set tempo
stop
Intro:

A5-A5-C#5-D5-D#5-E5-E5  X2  (un golpe cada acorde)


 A5
En una reunión demasiado formal

       E5
donde chicas lindas se veían pasar

       D5
donde toda la gente quería aparentar

    A5
que viven entre lujos

  A5
joyas y champagne

        E5
que recorren el mundo

   E5
en barcos y algo mas

      D5
y su lindo dinero pueden mal gastar


A5-A5-C#5-D5-D#5-E5-E5  (un golpe cada acorde)


   A5
A esa reunión fuimos justo a dar

      E5
mis amigos y yo listos para tocar

        D5
luego de un par de tragos


empezaron a arrimarse

   A5                E5
entonces la fiesta empezó a transformarse


     D5
las chicas alocadas se

     A5
empezaron a excitar

        D5
y todos de repente

      A5
se pusieron a bailar

B5          E5
  entonces que paso,

B5            E5
  el chato descontroló


Solo de Saxo sobre:

A5  -  D5  -  A5  - D5-B5

A5  -  D5  -  A5  - D5-B5


  A5
Entonces pintó un lindo descontrol

    E5
ya nadie aparenta


todo es vicio y alcohol

     D5
las chicas se revuelcan en


busca de emoción

    A5
y nosotros tocando

     E5
esta linda canción


     D5
las chicas alocadas se

     A5
empezaron a excitar

        D5
y todos de repente

      A5
se pusieron a bailar

B5          E5
  entonces que paso,

B5            E5
  el chato descontroló


  Solo
e|-----------12--12--12--12--------------12-12--12--12---12--12----
B|----10-12b-----12b-12b-12b------10-12b----12b-12b-12b--12b-12b-10
G|s11--------------------------11----------------------------------
D|-----------------------------------------------------------------
A|-----------------------------------------------------------------
E|-----------------------------------------------------------------


e|-----------------------------------12-12--12--12-------------12--
B|------10-10-------10------10---12b----12b-12b-12b-12--10-12b-----
G|-9h11--------9h11----9h11----------------------------------------
D|-----------------------------------------------------------------
A|-----------------------------------------------------------------
E|-----------------------------------------------------------------


e|-12--12--12------------------------------------12-----12-----12--
B|-12b-12b-12b--12-10-12s15--15-14-10-10s12--12b----12b----12b-----
G|-----------------------------------------------------------------
D|-----------------------------------------------------------------
A|-----------------------------------------------------------------
E|-----------------------------------------------------------------


e|-----12-----12-------------------------------------------
B|-12b----12b-----12b-10--12p10----10-10-------10------10--
G|------------------------------11----------11----9h11-----
D|---------------------------------------------------------
A|---------------------------------------------------------
E|---------------------------------------------------------


e|-----12-----12-----12--12--12------------------------
B|-12b----12b----12b-----12b-12b-10--------------------
G|------------------------------------7v--7-6--4b-4v---
D|-----------------------------------------------------
A|-----------------------------------------------------
E|-----------------------------------------------------


e|------------------------------
B|----------7b-7v---------------
G|-7v--7-6-----------7v--7-6-4--
D|------------------------------
A|------------------------------
E|------------------------------

Final:


E5-E5-D5-C#5-B5-A5  (un golpe cada rasguido)
Suggest correction
Give kudos to tab author, rate the tab!
1 2 3 4 5
comments
print report bad tab
guest
Wanna post a correction for this tab? Suggest correction