Oops, an error
Loading. Please wait.

Loco Motor A Rock Tab

4 views 1 this week
no commentswrite comment
1 2 3 4 5
3 more votes to show rating
add to favorites
launch autoscroll
font size
0
reset
how to read this tab
guitar tuner
×
Best way to learn
"Loco Motor A Rock"
Autoscroll
slow
fast
+/-
esc
set tempo
stop
  Intro

e|-------5-5---------5-5-------5-5------------------5--5--5--5-
B|-----5-5-5--7-5----5-5-----5-5-5--s8-8--7-7--5-5--8b-8b-8b-8b
G|-5h6--------7-5h6------5h6--------s9-9--7-7--5-5-------------
D|-------------------------------------------------------------
A|-------------------------------------------------------------
E|-------------------------------------------------------------


e|-------------------------------------------------------------
B|-s8-8--7--5----s8-8--7--5------------------------------------
G|-s9-9--7--5----s9-9--7--5b------5-7ba--7ba-5-----5-7ba-5-----
D|------------7-----------------7----------------7---------7---
A|-------------------------------------------------------------
E|-------------------------------------------------------------


e|----------------------
B|-7--5-----7--5--------
G|-7--5-----7--5--------
D|-------7--------------
A|----------------7-7---
E|----------------------


  Solo
e|-------5-----------5---------5--2-2-3-3-4-4--5----5--5--5--5-
B|-----5-5----7-5----5-------5-5--2-2-3-3-4-4--5----8b-8b-8b-8b
G|-5h6--------7-5h6------5h6-----------------------------------
D|-------------------------------------------------------------
A|-------------------------------------------------------------
E|-------------------------------------------------------------

e|----------------------------12-12----------12--10-----10-10--
B|-s8-8--7--5----s8-8--7-5----12-12----------12--10-----10-10--
G|-s9-9--7--5----s9-9--7-5b---------12-12h13--------12b--------
D|------------7------------------------------------------------
A|-------------------------------------------------------------
E|-------------------------------------------------------------


e|-----10-10-10-----------------|-----------------------------|
B|-----10-10-10--7-5------------|-8-7p5-----8-7p5------8p5----|
G|-12b-----------7-5---5-7ba-5--|-------7p5-------7p5------7p5| X4
D|-------------------7----------|-----------------------------|
A|------------------------------|-----------------------------|
E|------------------------------|-----------------------------|


e|-------------------------------------------------------------
B|-8b-8b-8b-8b-8b---------------------------------------------8
G|-------------------5-7-7ba-p5---5---5-7-7ba-p5---5-----5-s9--
D|-----------------7------------7----------------7-----7-------
A|-------------------------------------------------------------
E|-------------------------------------------------------------


e|--------------------------------------9-----8-----7-----5----
B|-----11-13-11-13ba-p11----11---------------------------------
G|-s12-------------------12-----12---s9---s8----s7-----s6------
D|-------------------------------------------------------------
A|-------------------------------------------------------------
E|-------------------------------------------------------------

Final
e|-------------------------------------------------------------
B|-5h8-5-------------------------------------------------------
G|--------7-5----5-5h7-5---------------------------------------
D|-------------7---------7-5----5h7----------------------------
A|---------------------------7---------------------------------
E|-------------------------------------------------------------
Suggest correction
Give kudos to tab author, rate the tab!
1 2 3 4 5
comments
print report bad tab
guest
You may want to rate the tab now too:
select rating
Wanna post a correction for this tab? Suggest correction