Oops, an error
Loading. Please wait.

Mil Historias Tab

10 views 1 this week
no commentswrite comment
1 2 3 4 5
3 more votes to show rating
add to favorites
launch autoscroll
font size
0
reset
how to read this tab
guitar tuner
×
Best way to learn
"Mil Historias"
Autoscroll
slow
fast
+/-
esc
set tempo
stop
Intro

E5-D5 - C5  X2

Riff que hace sobre cada acorde:
   G        C
e|--------|--------
B|-12--13-|-5--6---
G|-12--12-|-5--5---
D|-12--12-|-5--5---
A|-10--10-|-3--3---
E|--------|--------

  Intro
e|---------------------------
B|-----15--------------------
G|-14b----14b-14-12v---14b---
D|---------------------------
A|---------------------------
E|---------------------------

Riffs
  1         2         3                  4
e|--------|---------|------------------|---5------7------8--------
B|----10v-|-10-8----|----5-----7-----8-|--------------------------
G|-s9-----|------9v-|-s6----s8----s9---|s5----s7-----s9-----------
D|--------|---------|------------------|--------------------------
A|--------|---------|------------------|--------------------------
E|--------|---------|------------------|--------------------------


    5             6                             7
e|-------------|-----------------------------|-----------------------
B|-15------15--|-15----15---15-15------------|-----------------------
G|-14ba-12-14b-|----14-14b-----14ba-12---14b-|-----12-12--12-14ba-12v
D|-------------|-----------------------------|-s14-------------------
A|-------------|-----------------------------|-----------------------
E|-------------|-----------------------------|-----------------------

   8
e|-------|
B|-------|
G|-------|
D|-7s10v-|
A|-------|
E|-------|


G                     C    D
Ya no se bien lo que hago

G                  C   D
No me puedo controlar

G                  C    D
Mi cerebro esta quemado

G                   C
Y mis neuronas dejaron de funcionar


Riff 1  A5                      Riff 2
       Es que hace tanto tiempo

C5
   Que transito esta ruta

A5        B5   Riff 3
Viviendo mil historias

C5
  Que nunca voy a olvidar

G                    C
Y si me falla la memoria

A5       B5 Riff 4
No le daré importancia

C5                           Riff 5
  Por que otras mil historias

G                  D
Se que voy a transitar


  Solo
e|----------------------------------------------------------------
B|-------------------------------------------------8--------------
G|----------------------------------------7h9-7-------7-7h9-7-----
D|-0h2-0------5---0-0h2-0-----------------------9--------------9-7
A|--------2---------------2--------2-3----------------------------
E|--------------------------5--3-5--------------------------------

e|------------
B|------------
G|-----4--4b--
D|-5h7--------
A|------------
E|------------


G                     C   D
Tantas noches He quebrado

G                        C               D   Riff 6
Y tantas noches que me quedan por quebrar

G                   C    D  Riff 7
Quiero estar anestesiado

G           Riff 5      C
y con mi gente poder cantar una vez mas...


Riff 1     A5           Riff 2
        Sentir temblar mi cuerpo

C5
Cuando salgo a tocar

A5     Riff 3     B5
Vivir un sentimiento

C5
Que no puedo explicar

G    Riff 5              C
Si cada show es una historia

A5   Riff 4     B5
Yo seguiré en camino

C5                          Riff 5
Por que otras mil historias

G                   D
Se que voy a transitar

  Solo
e|-8-----8-8-----8-8-----8-8-----8-----8---10-----10-10------10-10
B|-8-----8-8-----8-8-----8-8-----8-----8---10-----10-10------10-10
G|---10b-----10b-----10b-----10b---10b--------12b--------12b------
D|----------------------------------------------------------------
A|----------------------------------------------------------------
E|----------------------------------------------------------------

e|-----10-10-----------10---8-----8-8-----8-----8------8-----8-
B|-----10-10-----------10---8-----8-8-----8-----8------8-----8-
G|-12b--------12-10h11--------10b-----10b---10b----10b---10b---
D|-------------------------------------------------------------
A|-------------------------------------------------------------
E|-------------------------------------------------------------

e|-10-----10-10-----10------10-----10------10------------------
B|-10-----10-10-----10------10-----10------10------------------
G|----12b-------12b-----12b----12b-----12b---------------------
D|----------------------------------------------5h7v-----------
A|-------------------------------------------------------------
E|-------------------------------------------------------------

A5                Riff 8
Es que hace tanto tiempo

C5
   Que transito esta ruta

A5  Riff 4 B5
Viviendo mil historias

C5
  Que nunca voy a olvidar

G Riff 5            C
Y si me falla la memoria

A5 Riff 4 B5
No le daré importancia

C5                              Riff 5
  Por que otras mil historias

G                  D
Se que voy a transitar


  Solo
e|-------------------------------------------------------------
B|---------------------------15---15-----15-15--15----15-------
G|-----3-3b-----------12-14--14/--14//----------14b---14ba-12v-
D|-3-5----------12h14------------------------------------------
A|-------------------------------------------------------------
E|-------------------------------------------------------------

e|------------------15----12------10-----8---------------------
B|-------------15b-----15----15------10----8-----15------------
G|-----------------------------------------------14ba-12----12v
D|14-12--------------------------------------------------14----
A|------14-----------------------------------------------------
E|-------------------------------------------------------------
Suggest correction
Give kudos to tab author, rate the tab!
1 2 3 4 5
comments
print report bad tab
guest
You may want to rate the tab now too:
select rating
Wanna post a correction for this tab? Suggest correction