Oops, an error
Loading. Please wait.

Nadie Me Puede Parar Tab

14 views 1 this week
no commentswrite comment
1 2 3 4 5
3 more votes to show rating
add to favorites
launch autoscroll
font size
0
reset
how to read this tab
guitar tuner
×
Best way to learn
"Nadie Me Puede Parar"
Autoscroll
slow
fast
+/-
esc
set tempo
stop
Riffs

   1           2                          3
e|----------|-10-10--10-10--13----------|----------------------------10
B|------5s7-|-10-10--10-10--14bababababa|-----8---10-8-10b---10b-10b---
G|----------|-11-11--11-11--------------|-7s9--------------------------
D|-5s7------|---------------------------|------------------------------
A|----------|---------------------------|------------------------------
E|----------|---------------------------|------------------------------


e|------10---------------------------10-----10-------------------
B|-10b/----10//-8--------8--10-8-10b----10b------10b-8---8-10ba-8
G|-------------------7s9-------------------------------9---------
D|---------------------------------------------------------------
A|---------------------------------------------------------------
E|---------------------------------------------------------------


Gm
Hace tanto que ya fue


Am-Gm                         Riff 1
     que ya nada es como ayer
           Am
la mala suerte me sigue


a mi a todo lados


D5 Riff 2
pasan los noches y yo sigo tirado


G5  C5  A5  D5


          G5
se que mi animo esta para atrás

     C5
y ni la cama ni el colchón


me quieren soltar

     A5
si mis amigos me vienen a buscar

            D5
les corto el rostro


y en la cama me vuelvo a tirar

       G5
y si recuerdo tu cara apoyada


en la almohada

  C5
escuchando mi guitarra tocar

    A5
es como un dia nublado,


como un trago amargo

   D5
en mi garganta que


se empieza a anudar


      C5
y no puedo creer

        C#5
que no voy a volverte a ver

       G5
se que el vino va a saberme ayudar

     A5
que lo nuestro no mejora se va poniendo mal

D5
desde mi cama veo al mundo girar


G5  C5  A5  D5


G5
esto ya no da para mas

      C5
y siempre dicen que es mejor


sumar que restar

          A5
es que mi cuerpo ya


se empieza a inquietar

 D5
estoy sintiendo que


es hora de arrancar


  C5
cortemos es siesta y

   C#5
busquemos una fiesta

       G5
las chicas no nos pueden faltar

      C5
en una noche como

             C#5
esta quiero estar de la cabeza

           G5                     E5
y encontrarme algún amigo en un bar

      A5                    D5
esta noche yo de fiesta me voy

                   G5  D5-C#5-D5
nadie me puede parar

  Solo
e|-------------------------------------------------------------
B|---------------------3-------------5----3-5-3----------------
G|---3-----------------3b----------3-5ba--3-5-3----------------
D|-5---5p3-5-4h5-4h5------5p3h5--5--------------5--3-5---------
A|-------------------------------------------------------------
E|-------------------------------------------------------------

e|------5-------3-------5------3-------------------------------
B|-------------------------------------------------------------
G|-4s6-----6s4-----4s6----6s4-----------7---9-7-9b-9-7---------
D|----------------------------------7h9------------------------
A|-------------------------------------------------------------
E|-------------------------------------------------------------

  C5
cortemos es siesta y

   C#5
busquemos una fiesta

       G5
las chicas no nos pueden faltar

      C5
en una noche como

             C#5
esta quiero estar de la cabeza

           G5                     E5
y encontrarme algún amigo en un bar

      A5                    D5
esta noche yo de fiesta me voy

                   G5  D5-C#5-D5
nadie me puede parar


Final (mientras repite nadie repite "nadie me puede parar")

e|-------------------------------------------------------------
B|----------------------------------------6---6---6----8h11-8v-
G|---3-5---3-5-5s7--5-3--5p3-----3-5-5s7----7-------7----------
D|-5-------------------------5---------------------------------
A|-------------------------------------------------------------
E|-------------------------------------------------------------

e|----------------------------------------------3-----------------------
B|-13-11-13b--13-11-13ba-p11--13-----11b----------6---------------------
G|-------------------------------12------12v--------5b--5p3-5ba-p3----3b
D|-----------------------------------------------------------------5----
A|----------------------------------------------------------------------
E|----------------------------------------------------------------------
Suggest correction
Give kudos to tab author, rate the tab!
1 2 3 4 5
comments
print report bad tab
guest
You may want to rate the tab now too:
select rating
Wanna post a correction for this tab? Suggest correction