Oops, an error
Loading. Please wait.

Nena Por Favor Tab

12 views 1 this week
no commentswrite comment
1 2 3 4 5
3 more votes to show rating
add to favorites
launch autoscroll
font size
0
reset
how to read this tab
guitar tuner
×
Best way to learn
"Nena Por Favor"
Autoscroll
slow
fast
+/-
esc
set tempo
stop
NENA POR FAVOR-MOTOR LOCO

  Intro

  E5
e|--------------------------------
B|--------------------------------
G|--------------------------------  X3
D|--------------------------------
A|-2-2--4-4--5-5--4-4--2-2--4--5--
E|-0-0--0-0--0-0--0-0--0-0--0--0--


  E5                     A5 Bb5 B5
e|----------------------------------
B|----------------------------------
G|----------------------------------
D|------------------------2--3---4--
A|-2-2--4-4--5-5--4-4--2--0--1---2--
E|-0-0--0-0--0-0--0-0--0------------


  0:09
e|-------------------------------------------------------------
B|-------------------------------------------------------------
G|-4-4--6-6--7-7--9-9--7-7--6--4----9-9--7-7--6-6--4-4-4--2-3-4
D|-------------------------------------------------------------
A|-------------------------------------------------------------
E|-------------------------------------------------------------


  Solo (1:21)

e|---------------------|----------------------------|-12--------
B|-15---15-------------|-15---15--------------------|----12-15b-
G|-14b--14ba-p12----12-|-14b--14ba-p12-------12b----|-----------
D|---------------14----|---------------14-14-----14-|-----------
A|---------------------|----------------------------|-----------
E|---------------------|----------------------------|-----------


e|-----12------------------------------------------------------
B|--15----15----------------------------------12------14-14-12-
G|------------14b-14-12--14b-12b--------------12b-----14-14-12b
D|-------------------------------14-12-14--14------14----------
A|-------------------------------------------------------------
E|-------------------------------------------------------------


e|-----------------------------------------------------12------
B|----------15--15--15---------12------9-12-9-11v--------------
G|----------14b-14b-14b----s13-----s10-------------s13---------
D|-14p12-14----------------------------------------------------
A|-------------------------------------------------------------
E|-------------------------------------------------------------


e|-------------------------------------------------------------
B|--7--7----7---------------------------------------7----------
G|--6--6b/--6//-p4----4----------------4----4-4--s8----6b-6v---
D|-----------------6----s6-6p4---4h5h6----6--------------------
A|-----------------------------6-------------------------------
E|-------------------------------------------------------------


e|-------12----------------------------------------------------
B|-12b/-----12//-10-12-----------------------------------------
G|-------------------------------------------------------------
D|-------------------------------------------------------------
A|-------------------------------------------------------------
E|-------------------------------------------------------------


cualquier cosa agrenguenme al mail
Suggest correction
Give kudos to tab author, rate the tab!
1 2 3 4 5
comments
print report bad tab
guest
You may want to rate the tab now too:
select rating
Wanna post a correction for this tab? Suggest correction