Oops, an error
Loading. Please wait.

No Juegues Con Tu Suerte Tab

10 views 1 this week
no commentswrite comment
1 2 3 4 5
3 more votes to show rating
add to favorites
launch autoscroll
font size
0
reset
how to read this tab
guitar tuner
Autoscroll
slow
fast
+/-
esc
set tempo
stop
Help us to improve Ultimate-Guitar.com Take our survey!
×
aca les dejo los punteos que va haciendo con el minuto en
que lo hace


  0:07

e|---------------------------------------------------------------
B|---------------------------------------------------------------
G|-----------------------------------------7---------------------
D|-7s9-9--s9-9-5-s7--5-5s7-5-----7s9-9--s9----7s5-7-5-5s7--------
A|--------------------------------------------------------7-5s7-5
E|---------------------------------------------------------------

1:02

e|---------------------------------------------------------------
B|---------------------------------------------------------------
G|--------------s5-----------------------------------------------
D|-s7-5-5s7-5------9-s7-7-5-s7--------5--5s7-5-------------------
A|-----------------------------7--5h7----------------------------
E|---------------------------------------------------------------

1:54

e|---------------------------------------------------------------
B|---------------------------------------------------------------
G|---------------------------------------------------------------
D|-s9-7-5-5s7-5-------------5---s9-7-7s5-------------------------
A|--------------5s7-5--5s7---------------5s7-5-------------------
E|---------------------------------------------------5s0---------

2:29

e|---------------------------------------------------------------
B|---------------------------------------------------------------
G|-------------------------------------7-7s12-12-12--12s7--------
D|-s9-s9-9-5s7-7-5-5-5s7-5--7s9-9--7s9---------------------------
A|---------------------------------------------------------------
E|---------------------------------------------------------------

e|---------------------------------------------------------------
B|-----------------10-------8-------10------8-------10--8v-------
G|------------9s11-----11s9----9s11----11s9----9s11--------------
D|-s7-7-5-7------------------------------------------------------
A|---------------------------------------------------------------
E|---------------------------------------------------------------

e|---------------------------------------------------------------
B|-10b-10-8v-----------------------------------------------------
G|---------------------------------------------------------------
D|---------------------------------------------------------------
A|---------------------------------------------------------------
E|---------------------------------------------------------------

3:14

e|---------------------------------------------------------------
B|---------------------------------------------------------------
G|-------------------------------------7-------------------------
D|-7s9-9-9--s9-9-5s7-5-5s7-5--7s9-9-s9---5s7-5-5s7---------------
A|--------------------------------------------------7-7s5--------
E|---------------------------------------------------------------

e|---------------------------------------------------------------
B|----------------------------s8-8--------s8-8-8-----------------
G|----------------------------s9-9-9s7-7--s9-9-9--s9v------------
D|---------------------------------------------------------------
A|-5s7-7-7s5-5--5s7-7-7s5-5--------------------------------------
E|---------------------------------------------------------------
Suggest correction
Give kudos to tab author, rate the tab!
1 2 3 4 5
comments
print report bad tab
guest
You may want to rate the tab now too:
select rating
Wanna post a correction for this tab? Suggest correction