Oops, an error
Loading. Please wait.

Nos Siguen Mintiendo Tab

2 views 1 this week
no commentswrite comment
1 2 3 4 5
3 more votes to show rating
add to favorites
launch autoscroll
font size
0
reset
how to read this tab
guitar tuner
Autoscroll
slow
fast
+/-
esc
set tempo
stop
Help us to improve Ultimate-Guitar.com Take our survey!
×
  Intro
e|-------------------------------------------------------------
B|---------------------------6-5-------------------------------
G|---5-7-5---5-7-5---5-7-5-------7-5----5-7-5---5-7-5--5-7-5---
D|-7-----------------------------------------------------------
A|-------------------------------------------------------------
E|-------------------------------------------------------------

e|---------------
B|-6-5-----------
G|-----7-5-5s12--
D|---------------
A|---------------
E|---------------

  Primer Solo
e|----------------------------------------------------------
B|------------------5--------5--------------------------5---
G|------------------5b-------5b-------------------------5b--
D|-5h7--7-5-7-5--7------5h7------7-5----5h7--7-5-7-7--7-----
A|-----------------------------------7----------------------
E|----------------------------------------------------------

e|-------------------------------------------------------------
B|---------------5--------------5---5---5----------------------
G|---5-7ba-p5----5b-------------5b--5b--5b-7-------------------
D|-7----------7-------7-5---5h7----------------7-5-------------
A|------------------------7-------------------------7-6-5--3---
E|-----------------------------------------------------------5-

e|--------------------------
B|--------------------------
G|--------------------------
D|--------------------------
A|-5ba-3----------3---3h5---
E|-------5-0--3h5---5-------

  Segundo solo

e|-10b--10v---------------8--8--8--8----------------------
B|-----------8b--8v---s10-------------10-8v---s10---------
G|------------------------------------------------10v-9v--
D|--------------------------------------------------------
A|--------------------------------------------------------
E|--------------------------------------------------------

e|-------------------------------------------------------------
B|---------------------8---------------------------------------
G|-7--s7v-5v-----5-7b-----7b-7v-----------5---5v----7ba-5-7v---
D|-------------7------------------------7---7------------------
A|-------------------------------------------------------------
E|-------------------------------------------------------------

e|-----------
B|-----------
G|-5---------
D|---7--7v---
A|-----------
E|-----------
Suggest correction
Give kudos to tab author, rate the tab!
1 2 3 4 5
comments
print report bad tab
guest
You may want to rate the tab now too:
select rating
Wanna post a correction for this tab? Suggest correction