Oops, an error
Loading. Please wait.

Paco Y Keko Tab

22 views 1 this week
no commentswrite comment
1 2 3 4 5
3 more votes to show rating
add to favorites
×
Save as Personal and add changes to this tab that will be seen only by you. Learn more ›
×
You can save this tab as Personal to edit and correct it or add notes. All changes will be seen only by you. Learn more »
save as personal
new!
launch autoscroll
font size
0
reset
how to read this tab
guitar tuner
Autoscroll
slow
fast
+/-
esc
set tempo
stop
Intro

  Bb5  C5   C#5  D#5    C5   C#5  D#5   E5    F5
e|------------------------------------------------
B|------------------------------------------------
G|------------------------------------------------
D|------------------------------------------------
A|-8----10---11---13-----10---11---13----14----15-
E|-6----8----9----11-----8----9----11----12----13-

Acordes Intro

Fm  -  Bbm-Cm   X4

Fm  -  Bbm  -  Cm  -  Bbm  X2


Solo de la Intro

e|-------------------------------------------------------------
B|-------------------------------------------------------------
G|-------8-10--8-10---------------------------8-10--8-10-------
D|-s10----------------8h10-8--6-8-6-5--------------------------
A|------------------------------------8-6-8--------------------
E|-------------------------------------------------------------

e|-----------------------------------------------------8-9-8---
B|----------------8h9-8-------------------9--------9---9-----11
G|--------------8--------10-8-10---8h10p8-10v---10-10----------
D|-8h10-8----10------------------------------------------------
A|-------------------------------------------------------------
E|-------------------------------------------------------------

e|---11-----------------------------8---8-----8-8--------------
B|-9-----8-9--6v-----------9--9-----8h9-8h9---9-9--9-9---------
G|-----------------8h10p8--10-10v------------------8-8---------
D|-------------------------------------------------------------
A|-------------------------------------------------------------
E|-------------------------------------------------------------

  Sobre el Bbm de la PRIMER estrofa hace esto:
e|-1--1---------------
B|-2----2-------------
G|-3------3-----------
D|-3------------------
A|-1------------------
E|--------------------

  Arpegio en desde "caminando callejones descalzo..."

  Fm               Bbm            Cm             Fm
e|-1----1------1----1---1------1---3---3------3--1---1-----1-
B|-1--1------1------2-2------2-----4-4------4----1-1-----1---
G|-1-------1--------3------3-------5------5------1-----1-----
D|-3----------------3--------------5-------------3-----------
A|-3----------------1--------------3-------------3-----------
E|-1---------------------------------------------1-----------


Fm                      Bbm
Cae el día y esperando estas

      Cm                Bbm
Que podes hacer que te va a salvar

Fm                        Bbm
Entendiendo vos solo tu locura

          Cm                          Bbm
Buscando a alguien que te quiera acompañar

Fm                        Bbm
Como un títere sin sueños vas

    Cm                       Bbm
A cualquier función, a cualquier lugar

Fm                          Bbm
consumiendo y revolviendo basura

      Cm                        Bbm
buscando algo que comer, buscando algo que fumar


no podes soñar secuencias de virulana
Te van a buscar
Y arrancarte de la almohada
Te despertaran
En la noche en la mañana
Y recorrerán
Mil caminos, largas horas
Despiertos

e|-------------------------------------------------------------
B|-------------------------------------------------------------
G|-------8-10--8-10---------------------------8-10--8-10-------
D|-s10----------------8h10-8--6-8-6-5--------------------------
A|------------------------------------8-6-8--------------------
E|-------------------------------------------------------------

e|-----------------------------------------------------8-9-8---
B|----------------8h9-8-------------------9--------9---9-----11
G|--------------8--------10-8-10---8h10p8-10v---10-10----------
D|-8h10-8----10------------------------------------------------
A|-------------------------------------------------------------
E|-------------------------------------------------------------

e|---11--------------------------------------------------------
B|-9-----8-9--6v-----------9--9----s11-11----11--------s8-8----
G|-----------------8h10p8--10-10v--s12----12----12--10-s9-9----
D|----------------------------------------------------------10-
A|-------------------------------------------------------------
E|-------------------------------------------------------------


Nada puede hacer el vicio faltar
Si no llega el, lo vas a buscar
Caminando callejones descalzo
Por que si vale el garrón, por que si vale el pecado
Por que nunca es demasiado
Nunca es y nunca será
Si vos estas bien, cuando todo esta muy mal
Escuchaste a los que hablan
De locura por hablar
Resolviste al fin...
La locura es tu verdad

  Solo
e|-------------------------------------------------------------
B|-------------------------------------------------------------
G|-------------------------------------------------------------
D|-------6h8--10h11--10p8--10------10---8----8s6----8----------
A|-8h10-----------------------8h10--------11------8------------
E|-------------------------------------------------------------

e|--------------------------------------------------------------
B|--------------------------------------------------------------
G|----------------10v----------------------10-----8s6--5-6p5----
D|-6-5-6p5------------10----------------------10-------------8-6
A|---------8-8-----------11---11-11p10h11-----------------------
E|--------------------------------------------------------------


e|-------------------------------------------------------------
B|-------------------------------------------------------------
G|------------------------------------8-10v-10v---10-10-10-----
D|-5---5v-5s6-6s8-8-8s10-10-10s11-11---------------------------
A|---8---------------------------------------------------------
E|-------------------------------------------------------------


e|----------------11--------------------------11---------------
B|---------9--11b----11b--11ba-p9----9----11b----11ba-p9-------
G|-10-8-10------------------------10---------------------10----
D|-------------------------------------------------------------
A|-------------------------------------------------------------
E|-------------------------------------------------------------


e|-----------------------------
B|-11b/--11//-9-11-9-----------
G|-------------------10-10v----
D|-----------------------------
A|-----------------------------
E|-----------------------------
Suggest correction
Give kudos to tab author, rate the tab!
1 2 3 4 5
comments
print report bad tab
guest
Wanna post a correction for this tab? Suggest correction