Oops, an error
Loading. Please wait.

Sucio Juego Tab

16 views 1 this week
no commentswrite comment
1 2 3 4 5
3 more votes to show rating
add to favorites
×
Save as Personal and add changes to this tab that will be seen only by you. Learn more ›
×
You can save this tab as Personal to edit and correct it or add notes. All changes will be seen only by you. Learn more »
save as personal
new!
launch autoscroll
font size
0
reset
how to read this tab
guitar tuner
Autoscroll
slow
fast
+/-
esc
set tempo
stop
SUCIO JUEGO-MOTOR LOCO


  Primer solo (1:59)
e|-------------------------------------------------------------
B|------10-12b-12b-12ba-p10----12b-12b-12ba-p10----------------
G|-9h11---------------------11------------------11-9-11b-11b---
D|-------------------------------------------------------------
A|-------------------------------------------------------------
E|-------------------------------------------------------------

e|-------------------------------------------------------------
B|------------------------5-------------5-------------8---5-8--
G|-11b-11ba-9-7-5v---5-7b---7-5b---5-7b---7-5b---5-7b----------
D|-----------------7-------------7-------------7---------------
A|-------------------------------------------------------------
E|-------------------------------------------------------------

e|------------------------
B|-s10-10--8--5-----------
G|---------------7--5b----
D|------------------------
A|------------------------
E|------------------------


  Segundo Solo (3:20)
e|-------------------------------------------------------------
B|-8h10---------------------------------------------5----------
G|------5h7--5b-------------------------------------5b---------
D|--------------7-5h7--5-----------------5--------7----7-------
A|------------------------5h7p5----5-5h7---7-6-5---------5-----
E|-------------------------------8-----------------------------

e|-------------------------------------------------------------
B|---5---8------8---8---8---8-------------8--10p8---10p8-------
G|---5b--7ba-5--7ba-7ba-7ba-7ba-5---5--s9---------9------9-----
D|-7------------------------------7----------------------------
A|-------------------------------------------------------------
E|-------------------------------------------------------------

e|----------8-8------------------------------------------------
B|-10p8-----8-8--10p8----------3-3-3-3---------3-3-3-3---------
G|------9-------------9-----2-s4-4-4-4------2-s4-4-4-4---------
D|------------------------5------------5--5------------5-------
A|-------------------------------------------------------------
E|-------------------------------------------------------------

e|------------12-----12------12--------------------------------
B|-----10-12b----12b----12b/----12//-10---12-9h10-9------------
G|-s11----------------------------------------------11-9-------
D|-------------------------------------------------------------
A|-------------------------------------------------------------
E|-------------------------------------------------------------

e|-----------------------
B|-----------------------
G|-9h11-9----9-9h11-7v---
D|--------11-------------
A|-----------------------
E|-----------------------
Suggest correction
Give kudos to tab author, rate the tab!
1 2 3 4 5
comments
print report bad tab
guest
Wanna post a correction for this tab? Suggest correction