Oops, an error
Loading. Please wait.

Tan Arruinado Tab

5 views 1 this week
no commentswrite comment
1 2 3 4 5
3 more votes to show rating
add to favorites
×
Save as Personal and add changes to this tab that will be seen only by you. Learn more ›
×
You can save this tab as Personal to edit and correct it or add notes. All changes will be seen only by you. Learn more »
save as personal
new!
launch autoscroll
font size
0
reset
how to read this tab
guitar tuner
Autoscroll
slow
fast
+/-
esc
set tempo
stop
aca dejo este tema completo con acordes y solos.


                                          A5
                                 otra noche que vuelvo a tomar
e|-S5--S5---S5---S5---S5---S5---S5----------------------------
B|-S7--S7---S7---S7---S7---S7---S7----------------------------
G|------------------------------------------------------------
D|----------------------------------------2-2-4-4-5-5-4-4-2---
A|----------------------------------------0-0-0-0-0-0-0-0-0---
E|----------------------------------0-3b----------------------


                                         E5
                                 Ya sabía como iba a terminar
e|-S5--S5---S5---S5---S5---S5---S5----------------------------
B|-S7--S7---S7---S7---S7---S7---S7----------------------------
G|------------------------------------------------------------
D|------------------------------------------------------------
A|----------------------------------------2-2-4-4-5-5-4-4-2---
E|----------------------------------0-3b--0-0-0-0-0-0-0-0-0---


     D5               A5                E5
     Estoy tan arruinado         que no puedo mantenerme en pie
e|-7-----------------------------------------------------------
B|-7b----------------------------------------------------------
G|----2-2-4-2--2-2-4-2------------------------------------------
D|----0-0-0-0--0-0-0-0--2-2-4-2--2-2-4-2------------------------
A|----------------------0-0-0-0--0-0-0-0--2-2-4-4-5-5-4-4-------
E|----------------------------------------0-0-0-0-0-0-0-0-------

    D5               A5                E5
     Estoy tan arruinado    que me quiero parar y vuelvo a caer
e|-------------------------------------------------------------
B|-------------------------------------------------------------
G|----2-2-4-2--2-2-4-2------------------------------------------
D|----0-0-0-0--0-0-0-0--2-2-4-2--2-2-4-2------------------------
A|----------------------0-0-0-0--0-0-0-0--2-2-4-4-5-5-4-4-------
E|----------------------------------------0-0-0-0-0-0-0-0-------


                                   A5
                              Voy caminando empiezo a tambalear
e|-----5-------------------------------------------------------
B|-5h7---------------------------------------------------------
G|-------5b----------------------------------------------------
D|----------7------5---------------2-2-4-4-5-5-4-4-2-----------
A|-------------5h7-----------------0-0-0-0-0-0-0-0-0-----------
E|--------------------8b-5---0-3b------------------------------


                  E5
                 Me quiero rescatar y vuelvo a tropezar
e|-------------------------------------------------------------
B|-------------------------------------------------------------
G|-SOLO-DE ----------------------------------------------------
D|-BATERIA-----------------------------------------------------
A|----------------2-2-4-4-5-5-4-4-2----------------------------
E|---------0-3b---0-0-0-0-0-0-0-0-0----------------------------


      D5               A5                E5
     Estoy tan arruinado        que no puedo mantenerme en pie
e|------------------------------------------------------------
B|-----------------------------------------------------------
G|----2-2-4-2--2-2-4-2------------------------------------------
D|----0-0-0-0--0-0-0-0--2-2-4-2--2-2-4-2------------------------
A|----------------------0-0-0-0--0-0-0-0--2-2-4-4-5-5-4-4-------
E|----------------------------------------0-0-0-0-0-0-0-0-------

    D5               A5                E5
     Estoy tan arruinado   que me quiero parar y vuelvo a caer
e|-------------------------------------------------------------
B|-------------------------------------------------------------
G|----2-2-4-2--2-2-4-2-----------------------------------------
D|----0-0-0-0--0-0-0-0--2-2-4-2--2-2-4-2-----------------------
A|----------------------0-0-0-0--0-0-0-0--2-2-4-4-5-5-4-4------
E|----------------------------------------0-0-0-0-0-0-0-0------


     D5               A5                E5
     Estoy tan arruinado         para levantar mataría un papel
e|-------------------------------------------------------------
B|-------------------------------------------------------------
G|----2-2-4-2--2-2-4-2-----------------------------------------
D|----0-0-0-0--0-0-0-0--2-2-4-2--2-2-4-2-----------------------
A|----------------------0-0-0-0--0-0-0-0--2-2-4-4-5-5-4-4------
E|----------------------------------------0-0-0-0-0-0-0-0------


    D5              A5                 E5
     Estoy tan arruinado    que me sigo arrastrando y no me ...
e|--------------------------------------------------------------
B|--------------------------------------------------------------
G|----2-2-4-2--2-2-4-2------------------------------------------
D|----0-0-0-0--0-0-0-0--2-2-4-2--2-2-4-2------------------------
A|----------------------0-0-0-0--0-0-0-0--2-2-4-4-5-5-4-4-------
E|----------------------------------------0-0-0-0-0-0-0-0-------


              A5                     E5
e|-------------------------------------------------------------
B|-------------------------------------------------------------
G|-solo-de------------------------solo-de----------------------
D|-piano--------2-2-4-4-5-5-4-4-2-piano------------------------
A|--------------0-0-0-0-0-0-0-0-0------------2-2-4-4-5-5-4-4-2-
E|---------0-3b-------------------------0-3b-0-0-0-0-0-0-0-0-0-

   D5                A5                E5
e|-------------------------------------------------------------
B|---------------------SOLO-DE-ARMONICA------------------------
G|-2-2-4-2--2-2-4-2--------------------------------------------
D|-0-0-0-0--0-0-0-0--2-2-4-2--2-2-4-2--------------------------
A|-------------------0-0-0-0--0-0-0-0--2-2-4-4-5-5-2-2---------
E|-------------------------------------0-0-0-0-0-0-0-0---------


   D5                 A5             E5
e|-------------------------------------------------------------
B|---------------------SOLO-DE-ARMONICA------------------------
G|-2-2-4-2--2-2-4-2--------------------------------------------
D|-0-0-0-0--0-0-0-0--2-2-4-2--2-2-4-2--------------------------
A|-------------------0-0-0-0--0-0-0-0--2-2-4-4-5-5-2-2---------
E|-------------------------------------0-0-0-0-0-0-0-0---------


     D5               A5                E5
     Estoy tan arruinado         que no puedo mantenerme en pie
e|------------------------------------------------------------
B|-----------------------------------------------------------
G|----2-2-4-2--2-2-4-2------------------------------------------
D|----0-0-0-0--0-0-0-0--2-2-4-2--2-2-4-2------------------------
A|----------------------0-0-0-0--0-0-0-0--2-2-4-4-5-5-4-4-------
E|----------------------------------------0-0-0-0-0-0-0-0-------

     D5               A5                E5
     Estoy tan arruinado    que me quiero parar y vuelvo a caer
e|-------------------------------------------------------------
B|-------------------------------------------------------------
G|----2-2-4-2--2-2-4-2-----------------------------------------
D|----0-0-0-0--0-0-0-0--2-2-4-2--2-2-4-2-----------------------
A|----------------------0-0-0-0--0-0-0-0--2-2-4-4-5-5-4-4------
E|----------------------------------------0-0-0-0-0-0-0-0------


     D5               A5                E5
     Estoy tan arruinado         para levantar mataría un papel
e|-------------------------------------------------------------
B|-------------------------------------------------------------
G|----2-2-4-2--2-2-4-2-----------------------------------------
D|----0-0-0-0--0-0-0-0--2-2-4-2--2-2-4-2-----------------------
A|----------------------0-0-0-0--0-0-0-0--2-2-4-4-5-5-4-4------
E|----------------------------------------0-0-0-0-0-0-0-0------


    D5               A5                E5
     Estoy tan arruinado    que me sigo arrastrando y no me ...
e|--------------------------------------------------------------
B|--------------------------------------------------------------
G|----2-2-4-2--2-2-4-2------------------------------------------
D|----0-0-0-0--0-0-0-0--2-2-4-2--2-2-4-2------------------------
A|----------------------0-0-0-0--0-0-0-0--2-2-4-4-5-5-4-4-------
E|----------------------------------------0-0-0-0-0-0-0-0-------


SOLO


e|-----5-----5-----5------5------5-----5-----5------5----------
B|-5h7---5h7---5h7---5h7-----5h7---5h7---5h7----5h7------------
G|-------------------------------------------------------------
D|-------------------------------------------------------------
A|-------------------------------------------------------------
E|-------------------------------------------------------------


e|-----5-----5-----5------5---7b-7b-7ba-p5----8p5---8p5--------
B|-5h7---5h7---5h7---5h7--------------------------5-----5------
G|-------------------------------------------------------------
D|-------------------------------------------------------------
A|-------------------------------------------------------------
E|-------------------------------------------------------------


e|-8p5-------5----5--------------------------------------------
B|-----5--7b---7b-----15b-15b-15ba-p13---------17b-17b-17b-p15-
G|-------------------------------------12-12v------------------
D|-------------------------------------------------------------
A|-------------------------------------------------------------
E|-------------------------------------------------------------

e|-------------------------------------------------------------
B|-----------------------17----17------------------------------
G|-12--12v-----14-16-16b---16b----16ba-p14----14v---------14---
D|---------s16-----------------------------16---------s16------
A|-------------------------------------------------------------
E|-------------------------------------------------------------

e|-------------------------------------------------------------
B|-------------------------------------------------------------
G|-17p14-16p14-----14-16ba-p14----14---------------------------
D|-------------s16-------------16---------s16--14v-------------
A|-------------------------------------------------------------
E|-------------------------------------------------------------

e|-------------------------------------------------------------
B|-------------------------------------------------------------
G|-------14-12v---------------14--12v--------------------------
D|-14h16---------------14h16-----------------------------------
A|-------------------------------------------------------------
E|-------------------------------------------------------------

FINAL

e|-8h9-10-8h9--------------------------------------------------
B|------------10-8-----8-7--5----------------------------------
G|-----------------9---8-7--5b---------------------------------
D|------------------------------7vv----------------------------
A|-------------------------------------------------------------
E|-------------------------------------------------------------
Suggest correction
Give kudos to tab author, rate the tab!
1 2 3 4 5
comments
print report bad tab
guest
Wanna post a correction for this tab? Suggest correction