Oops, an error
Loading. Please wait.

Ya Estoy Bien Tab

19 views 1 this week
no commentswrite comment
1 2 3 4 5
3 more votes to show rating
add to favorites
×
Save as Personal and add changes to this tab that will be seen only by you. Learn more ›
×
You can save this tab as Personal to edit and correct it or add notes. All changes will be seen only by you. Learn more »
save as personal
new!
launch autoscroll
font size
0
reset
how to read this tab
guitar tuner
Autoscroll
slow
fast
+/-
esc
set tempo
stop
YA ESTOY BIEN- MOTOR LOCO


Riff

Guitarra 1                  Guitarra 2
e|-5-4-2-4--5-4-0-2-4-2-0--|------------------------------
B|-5-4-2-4--5-4-0-2-4-2-0--|------------------------------
G|-------------------------|------------------------------
D|-------------------------|------------------------------
A|-------------------------|------------------------------
E|-------------------------|-5-4-2-4--5-4-0-2-4-2-0-------


  Intro

  E5                 A
e|-------------------5-5--5-7--7-5--------
B|-------------------5-5--5-5--5-5--------
G|-9-9--9-9-9--9-9---6-6--6-6--6-5--------
D|-9-9--9-9-9--9-9---7-7--7-7--7-7--X2----
A|-7-7--7-7-7--7-7---7-7--7-7--7-7--------
E|-------------------5-5--5-5--5-5--------


e|---------------------------------------------12--------------------
B|-12--12----12---12------------------12--12------12---12--12--------
G|-11b-11b---11b--11--9-------Riff----11b-11b-----11b--11b-11-9------
D|----------------------11--------------------------------------11---
A|-------------------------------------------------------------------
E|-------------------------------------------------------------------


e|---------0--0---
B|---------0--0---
G|-Riff-----------
D|----------------
A|----------------
E|----------------


        A5
Estabas sola

               E5
Y no querías escuchar

        A5
Estabas sola

                 E5
Y saliste a caminar


       B5
Y no pensaste mas


En que podía pasar

     G#5                A5
Decidiste pasarme a buscar

   E5
A buscar...


          A5
Y te olvidaste

                    E5
Lo que me dijiste ayer

        A5
Pero alguien se canso

                E5
Ahora te toca perder


        B5
Y es difícil mi amor


Que puedas entender

    G#5                  A5
Ya borre tu nombre en la pared

            G#5
Y aunque el camino fue muy largo

         B5               E5
Ya estoy bien, ya estoy bien


  Solo
e|--------------------------------5-4-2-4--5-4-0-2-4-2-0-------
B|------5----5-5--8b-5-5-----5----5-4-2-4--5-4-0-2-4-2-0-------
G|-s4-4---7b--------------7b-----------------------------------
D|-------------------------------------------------------------
A|-------------------------------------------------------------
E|-------------------------------------------------------------

e|--------12-----12---------15b-12-----------12--5-4-2-4--5-4-0-2-4-2-0
B|-----12----15b-----15-12---------15------------5-4-2-4--5-4-0-2-4-2-0
G|-14b--------------------------------12h13----------------------------
D|---------------------------------------------------------------------
A|---------------------------------------------------------------------
E|---------------------------------------------------------------------


e|-------------
B|-12---12-----
G|-12b--12b----
D|-------------
A|-------------
E|-------------


Final:

E5 - E5 - A5 - B5 X2

A5      B5      E5
Ya,  ya estoy bien
Suggest correction
Give kudos to tab author, rate the tab!
1 2 3 4 5
comments
print report bad tab
guest
Wanna post a correction for this tab? Suggest correction