Oops, an error
Loading. Please wait.

Be My Baby Bass Tab

version 1
version 1

Whole song

Interactive

1,610 views 1 this week
no commentswrite comment
1 2 3 4 5
please rate
add to favorites
launch autoscroll
font size
0
reset
guitar tuner
Tab Pro tools
  • play this tab
  • loop segment
  • change instrument
  • show fretboard
  • metronome
×
Best way to learn
"Be My Baby"
Autoscroll
slow
fast
+/-
esc
set tempo
stop
Contributor
-----------------------------------------------------------------------------
Be My Baby - Motorhead
-----------------------------------------------------------------------------

Tabbed By : Mr.Jimmylove


Tuning: c# G# C# F#
F#|------------------------------------------------------------|
C#|------------------------------------------------------------|
G#|-8-7-6-5--5-6-5--5--5--5--5--8-7-6-5--5-6-5--5-6-5--5-6-5---|
c#|------------------------------------------------------------|

F#|------------------------------------------------------------|
C#|------------------------------------------------------------|
G#|-8-7-6-5--5-6-5--5--5--5-6-5--8-7-6-5--5-6-5--5-6-5--5-6-5--|
c#|------------------------------------------------------------|

F#|------------------------------------------------------------|
C#|------------------------------------------------------------|
G#|-8-7-6-5--5-6-5--5--5--5-6-5--8-7-6-5--5-6-5--5-6-5--5-6-5--|
c#|------------------------------------------------------------|

F#|------------------------------------------------------------|
C#|------------------------------------------------------------|
G#|-8-7-6-5--5-6-5--5--5--5\-----------------------------------|
c#|------------------------------------------------------------|


F#|-6-6-6-6-6-6-6-6-6-6-6-6-6-6-6-6-7-7-7-7-7-7-7-7-7-7-7-7-7-7-7-7-|
C#|-4-4-4-4-4-4-4-4-4-4-4-4-4-4-4-4-5-5-5-5-5-5-5-5-5-5-5-5-5-5-5-5-|
G#|-----------------------------------------------------------------|
c#|-----------------------------------------------------------------|

F#|-6-6-6-6-6-6-6-6-6-6-6-6-6-6-6-6---------------5-----------------|
C#|-4-4-4-4-4-4-4-4-4-4-4-4-4-4-4-4-9-9-9-9-9-9-9-3-----------------|
G#|---------------------------------7-7-7-7-7-7-7-------------------|
c#|-----------------------------------------------------------------|


F#|-2-2-2-2-2-2-2-----------------|x2
C#|-0-0-0-0-0-0-0-----------3-2-0-|
G#|---------------3-3-3-3-3-------|
c#|-------------------------------|

F#|-2-2-2-2-2-2-2-----------------5-----------|
C#|-0-0-0-0-0-0-0-----------3-2-0-3-----------|
G#|---------------3-3-3-3-3-------------------|
c#|-------------------------------------------|

F#|-2-2-2-2-2-2-2-----------------|x2
C#|-0-0-0-0-0-0-0-----------3-2-0-|
G#|---------------3-3-3-3-3-------|
c#|-------------------------------|

F#|-2-2-2-2-2-2-2-----------------5-----------|
C#|-0-0-0-0-0-0-0-----------3-2-0-3-----------|
G#|---------------3-3-3-3-3-------------------|
c#|-------------------------------------------|


F#|-6-6-6-6-6-6-6-6-6-6-6-6-6-6-6-6-7-7-7-7-7-7-7-7-7-7-7-7-7-7-7-7-|
C#|-4-4-4-4-4-4-4-4-4-4-4-4-4-4-4-4-5-5-5-5-5-5-5-5-5-5-5-5-5-5-5-5-|
G#|-----------------------------------------------------------------|
c#|-----------------------------------------------------------------|

F#|-6-6-6-6-6-6-6-6-6-6-6-6-6-6-6-6---------------5-----------------|
C#|-4-4-4-4-4-4-4-4-4-4-4-4-4-4-4-4-9-9-9-9-9-9-9-3-----------------|
G#|---------------------------------7-7-7-7-7-7-7-------------------|
c#|-----------------------------------------------------------------|

x2
F#|-2-2-2-2-2-2-2-----------------|
C#|-0-0-0-0-0-0-0-----------3-2-0-|
G#|---------------3-3-3-3-3-------|
c#|-------------------------------|

F#|-2-2-2-2-2-2-2-----------------5-----------|
C#|-0-0-0-0-0-0-0-----------3-2-0-3-----------|
G#|---------------3-3-3-3-3-------------------|
c#|-------------------------------------------|

x2
F#|-2-2-2-2-2-2-2-----------------|
C#|-0-0-0-0-0-0-0-----------3-2-0-|
G#|---------------3-3-3-3-3-------|
c#|-------------------------------|

F#|-2-2-2-2-2-2-2-----------------5-----------|
C#|-0-0-0-0-0-0-0-----------3-2-0-3-----------|
G#|---------------3-3-3-3-3-------------------|
c#|-------------------------------------------|


solo - x2
F#|----------------------------------2----------6----------|
C#|-9----------4----------5----------0----------4----------|
G#|-7----------2----------3--------------------------------|
c#|--------------------------------------------------------|


F#|--------------------------------------------------------|
C#|--------------------------------------------------------|
G#|-8-7-6-5--5-6-5--5-5-5-5--8-7-6-5--5-6-5--5-6-5--5-6-5--|
c#|--------------------------------------------------------|

F#|--------------------------------------------------------|
C#|--------------------------------------------------------|
G#|-8-7-6-5--5-6-5--5-5-5-6--8-7-6-5--5-6-5--5-6-5--5-6-5--|
c#|--------------------------------------------------------|

F#|--------------------------------------------------------|
C#|--------------------------------------------------------|
G#|-8-7-6-5--5-6-5--5-5-5-6--8-7-6-5--5-6-5--5-6-5--5-6-5--|
c#|--------------------------------------------------------|

F#|--------------------------------------------------------|
C#|--------------------------------------------------------|
G#|-8-7-6-5--5-6-5--5-5-5\---------------------------------|
c#|--------------------------------------------------------|


F#|-6-6-6-6-6-6-6-6-6-6-6-6-6-6-6-6-7-7-7-7-7-7-7-7-7-7-7-7-7-7-7-7-|
C#|-4-4-4-4-4-4-4-4-4-4-4-4-4-4-4-4-5-5-5-5-5-5-5-5-5-5-5-5-5-5-5-5-|
G#|-----------------------------------------------------------------|
c#|-----------------------------------------------------------------|

F#|-6-6-6-6-6-6-6-6-6-6-6-6-6-6-6-6---------------5-----------------|
C#|-4-4-4-4-4-4-4-4-4-4-4-4-4-4-4-4-9-9-9-9-9-9-9-3-----------------|
G#|---------------------------------7-7-7-7-7-7-7-------------------|
c#|-----------------------------------------------------------------|

x2
F#|-2-2-2-2-2-2-2-----------------|
C#|-0-0-0-0-0-0-0-----------3-2-0-|
G#|---------------3-3-3-3-3-------|
c#|-------------------------------|

F#|-2-2-2-2-2-2-2-----------------5-----------|
C#|-0-0-0-0-0-0-0-----------3-2-0-3-----------|
G#|---------------3-3-3-3-3-------------------|
c#|-------------------------------------------|

x2
F#|-2-2-2-2-2-2-2-----------------|
C#|-0-0-0-0-0-0-0-----------3-2-0-|
G#|---------------3-3-3-3-3-------|
c#|-------------------------------|

F#|-2-2-2-2-2-2-2-----------------5-----------|
C#|-0-0-0-0-0-0-0-----------3-2-0-3-----------|
G#|---------------3-3-3-3-3-------------------|
c#|-------------------------------------------|

x3
F#|-5-5-5-5-5-5-5-5-|
C#|-3-3-3-3-3-3-3-3-|
G#|-----------------|
c#|-----------------|

F#|-5---------------------------------------------------|
C#|-3---------------------------------------------------|
G#|------------------------------------------8-7-6-5--5-|
c#|-----------------------------------------------------|




| /  slide up
| \  slide down
| h  hammer-on
| p  pull-off
| ~  vibrato
| +  harmonic
| x  Mute note
=============================================================================
comments
We did not receive enough feedback on this tab! Please rate:
print report bad tab
1 2 3 4 5
I want to post or [tab]
guest
You may want to rate the tab now too:
select rating
Please do not post tabs as comments. Select "correction" instead!