Oops, an error
Loading. Please wait.

No Class Tab

version 2
version 2

Whole song

Interactive

12,539 views 42 this week
1 commentread comment
1 2 3 4 5
x 4
add to favorites
launch autoscroll
font size
0
reset
how to read this tab
guitar tuner
×
Best way to learn
"No Class"
Autoscroll
slow
fast
+/-
esc
set tempo
stop
Author
Tuning
  follow
D# G# C# F# A# D#
ARTIST:MOTORHEAD.
SONG:NO CLASS.
ALBUM:THE BEST OF MOTORHEAD.
TUNING:HALF STEP 1/2.
TAB:LOPEZ017.

D#|--------------------------------------------------------------|
A#|--------------------------------------------------------------|
F#|---7-7-5--7-7-7-5---------------------------------------------|
C#|---7-7-5--7-7-7-5---------------------------------------------|
G#|----------------------3---------------------------------------|
D#|----------------0h3h5-----------------------------------------|

D#|---------------------------------------------------------|
A#|---------------------------------------------------------|
F#|---------5555----77-77-77-77--------5555----99-99-99-99--|
C#|---3333--5555----77-77-77-77--3333--5555----99-99-99-99--|
G#|---3333--3333---055055055055--3333--3333---077077077077--|
D#|---1111-----------------------1111-----------------------|

Second chorus
*Note* Mute the open notes.
D#|------------------------------------------------------------|
A#|------------------------------------------------------------|
F#|--7-7-5--7-7-7-5--2-----7-7-5---7-7-5---22------------------|
C#|--7-7-5--7-7-7-5--2-----7-7-5---7-7-5---22------------------|
G#|-------------------------------------------00---------------|
D#|------------------------------------------------------------|

D#|------------------------------------------------------------|
A#|------------------------------------------------------------|
F#|----7-7-5--7-7-7-5---22----7-7-5--7-7-5---------------------|
C#|----7-7-5--7-7-7-5---22----7-7-5--7-7-5---------------------|
G#|------------------------------------------------------------|
D#|------------------------------------------------------------|

Solo riff
D#|---------------------------------------------------------|
A#|---------------------------------------------------------|
F#|--77777777-5-7-5-7-5-7-5-7-5-7-5-7-5-7-5-7-----55-----77-|
C#|--77777777-5-7-5-7-5-7-5-7-5-7-5-7-5-7-5-7-----55-----77-|
G#|--55555555-3-5-3-5-3-5-3-5-3-5-3-5-3-5-3-5--0--33--0--55-|
D#|---------------------------------------------------------|

D#|---------------------------------------------------------|
A#|---------------------------------------------------------|
F#|-----99-----99-----99-----99-----------------------------|
C#|-----99-----99-----99-----99-----------------------------|
G#|--0--77--0--77--0--77--0--77-----------------------------|
D#|---------------------------------------------------------|

After this, play the verse, pre-chorus, and 1st chorus once more.

************************************

| h  Hammer-on

************************************
Suggest correction
comments
print report bad tab
1 comment total.
0 reply
delmo0004 10 Sep 24, 2008 09:34 PM

the intro isnt correct check my tab for the intro. Every thing else is correct tho

guest
You may want to rate the tab now too:
select rating
Wanna post a correction for this tab? Suggest correction