Oops, an error
Loading. Please wait.

King Of The Dead End Road tab

112 views 3 this week
no commentswrite comment
1 2 3 4 5
3 more votes to show rating
add to favorites
×
Save as Personal and add changes to this tab that will be seen only by you. Learn more ›
×
You can save this tab as Personal to edit and correct it or add notes. All changes will be seen only by you. Learn more »
launch autoscroll
font size
0
reset
how to read this tab
guitar tuner
edit
Autoscroll
slow
fast
+/-
esc
set tempo
stop
About this tab version
No other tabs of this song online, hope you enjoy it and please add corrections. Was this info helpful? Yes No
Motorjesus - king of the dead end road
tuning: D standard / one step down

[Intro]
D|----------------------------------------------|
A|----------------------------------------------|
F|----------------------------------------------|
C|-----2-2-2------2-2-2------5-------------2-2-2|
G|-5-7\2-2-2--5-7\2-2-2--5-7---5-7-5--5-7-\2-2-2|
D|-----0-0-0------0-0-0--------------------0-0-0|

D|----------------------------------------------|
A|----------------------------------------------|
F|----------------------------------------------|
C|-----2-2-2------2-2-2------5------------------|
G|-5-7\2-2-2--5-7\2-2-2--5-7---5-7-5--5-7-------|
D|-----0-0-0------0-0-0-------------------------|

D|-----------------------------------------------------------------|
A|-----------------------------------------------------------------|
F|-----------------------------------------------------------------|
C|-----2-2-2-2-2-2------2-2-2-2-2-2------5-------------2-2-2-2-2-2-|x2
G|-5-7\2-2-2-2-2-2--5-7\2-2-2-2-2-2--5-7---5-7-5--5-7-\2-2-2-2-2-2-|
D|-----0-0-0-0-0-0------0-0-0-0-0-0--------------------0-0-0-0-0-0-|

[Verse]
(........Full steam, take down...)
D|---------------------------------------------------------|
A|---------------2-0---------------------------------------|
F|-2-0-----------3-0-----------2-0-------------------------|
C|-2-0-h2-x-x-x--0-0-h2-x-x-x--2-0-h2-x-x-x-5-5-5--7-7-7---|x2
G|-0-0-h2-x-x-x------h2-x-x-x--0-0-h2-x-x-x-5-5-5--7-7-7---|
D|-----h0-x-x-x------h0-x-x-x------h0-x-x-x-3-3-3--5-5-5---|

(.........Welcome to my doom....)
D|----------------------------------------------------------------|
A|-----------------2-0--------------------------------------------|
F|-2-0-------------3-0-------------2-0----------------------------|
C|-2-0-h2-2-2-2-2--0-0-h2-2-2-2-2--2-0-h2-2-2-2-2--5-5-5--7-7-7---|x2
G|-0-0-h2-2-2-2-2------h2-2-2-2-2--0-0-h2-2-2-2-2--5-5-5--7-7-7---|
D|-----h0-0-0-0-0------h0-0-0-0-2------h0-0-0-0-0--3-3-3--5-5-5---|

[Bridge]
(....something's waiting deep down in the heart of me....)
D|---------------------------------------------------------------0---------------------------|
A|---------------------------------------------------------------0---------------------------|
F|---------------------------------------------------------------0-7/9--0-7/9--0-7/9--0-7/9--|
C|-5-5-5-5-5-5-5-5-5-5--7-7-7--2-------------5-5-5-5-5-5-5-5-5-5-0-0/0--0-0/0--0-0/0--0-0/0--|
G|-5-5-5-5-5-5-5-5-5-5--7-7-7--2-------------5-5-5-5-5-5-5-5-5-5-0-5/7--0-5/7--0-5/7--0-5/7--|
D|-3-3-3-3-3-3-3-3-3-3--5-5-5--0----3p4p5p6--3-3-3-3-3-3-3-3-3-3-0---------------------------|

[Chorus]
....Get it on, I'm the king of the road....

[Ritme]
D|---------------------------------------------------------------------------------------|
A|---------------------------------------------------------------------------------------|
F|---------------------------------------------------------------------------------------|
C|-2-2-2-2-2-2-2-2-2-2-2-2--5-5-5-5-5-5-5-5-5-5-5-5--7-7-7-7-7-7-7-7-7-7-7-7--2----------|(x2)
G|-2-2-2-2-2-2-2-2-2-2-2-2--5-5-5-5-5-5-5-5-5-5-5-5--7-7-7-7-7-7-7-7-7-7-7-7--2----------|
D|-0-0-0-0-0-0-0-0-0-0-0-0--3-3-3-3-3-3-3-3-3-3-3-3--5-5-5-5-5-5-5-5-5-5-5-5--0--3p4p5p6-|

[Lead]
D|------------------------------------------------------|
A|------------------------------------------------------|
F|-9/12\11\7/12/14\6s-----------------------------------|
C|-0/-0\-0\0/-0/-0\0s---2-------------------------------|x2
G|-7/10\-9\5/10/12\4s---2-------------------------------|
D|----------------------0--3p4p5p6----------------------|

[strofe]
[bridge]

[Breakdown]
D|------------------------------|
A|------------------------------|
F|------------------------------|
C|-2-2--2-2-----2-2-----2-2-----|during solo (in D) and verse 
G|-2-2--2-2-h5p-2-2-h5p-2-2-----|......Now cause the damage, take the open road....
D|-0-0--0-0-----0-0-----0-0-----|

(2nd part of the intro as the outro)

            
            
Suggest correction
Creating personal tab
Creating personal tab
You can edit any tab online and save it as your Personal.

You can edit, replace or remove any tab part or add personal notes – all changes will be seen only by you.

Personal tabs can be accessed anytime from any device, even offline.
Learn more »
Give kudos to tab author, rate the tab!
1 2 3 4 5
comments
print report bad tab
guest
You may want to rate the tab now too:
select rating
Wanna post a correction for this tab? Suggest correction