Oops, an error
Loading. Please wait.

Hora De Arrancar Tab

7 views 1 this week
no commentswrite comment
1 2 3 4 5
3 more votes to show rating
add to favorites
launch autoscroll
font size
0
reset
how to read this tab
guitar tuner
Autoscroll
slow
fast
+/-
esc
set tempo
stop
Help us to improve Ultimate-Guitar.com Take our survey!
×
Hora de Arrancar

intro de bajo

Riff

   1º GUITARRA HACE

E|-----------------------------------------------------|
B|-----------------------------------------------------|
G|12-12-10-9-10-9-------------12-12-10-9-10-9----12-12-|
D|----------------10--------------------------10-------|
A|--------------------10-10----------------------------|
E|-----------------------------------------------------|

   2º GUITARRA HACE


D|-5-5-3-2-3-2---------5-5-3-2-3-2---5-5-|
A|-------------3-------------------3-----|
E|---------------3-3---------------------|

sobre G

Si tienes ganas de hacer algo para estar bien
solo enciende tu cuerpo empieza a enloquecer

Riff x2

Sobre G

Poniendo en marcha tu mente es hora de arrancar
en el medio de la noche nadie te va a parar

RIff x4

ESTRIBILLO

C                                                       G
Y si quieres mas accion, con un poco de atencion la vas a encontrar
C                                                       G
Si queres mas diversion con un poco de intencion la vas a encontrar

Riff x4

sobre G

Si tienes ganas de hacer algo para estar bien
solo enciende tu cuerpo empieza a enloquecer

Riff x2

Sobre G

Poniendo en marcha tu mente es hora de arrancar
en el medio de la noche nadie te va a parar

RIff x4

ESTRIBILLO

C                                                       G
Y si quieres mas accion, con un poco de atencion la vas a encontrar
C                                                       G
Si queres mas diversion con un poco de intencion la vas a encontrar

Riff x4
Final G
Suggest correction
Give kudos to tab author, rate the tab!
1 2 3 4 5
comments
print report bad tab
guest
You may want to rate the tab now too:
select rating
Wanna post a correction for this tab? Suggest correction