Oops, an error
Loading. Please wait.

Fools Gold chords

16 views 1 this week
no commentswrite comment
1 2 3 4 5
2 more votes to show rating
add to favorites
×
Save as Personal and add changes to this tab that will be seen only by you. Learn more ›
×
You can save this tab as Personal to edit and correct it or add notes. All changes will be seen only by you. Learn more »
launch autoscroll
font size
0
reset
transpose
0
reset
simplify chords
display chords
guitar tuner
edit
Autoscroll
slow
fast
+/-
esc
set tempo
stop
Strumming
There is no strumming pattern for this song yet. and get +5 IQ
Fools Gold - Motorpsycho
Tabbed by: Meuwh
Tuning: Standard E

***************************************************************************
Note:
During the verses you have to play to same pattern like the intro.
So the 2 and 0 on the E string between the chords.
***************************************************************************



[Intro]
   Am7     G          Am7      Cmaj7      Am7     G
e|-0---------------|--0--------0-------|--0---------------|
B|-1----------0-0--|--1--------0--0-0--|--1----------0-0--|
G|-0-------0--0-0--|--0--------0--0-0--|--0-------0--0-0--|
D|-2-------0--0-0--|--2--------2--2-2--|--2-------0--0-0--|
A|-0-------2--2-2--|--0--------3--3-2--|--0-------2--2-2--|
E|----2--0-3--3-3--|------2--0---------|-----2--0-3--3-3--|

    Dadd4       Cmaj7        Dadd4       Cmaj7
e|-----------|------------|-----------|------------|
B|--------3--|--0---0--0--|--------3--|--0---0--0--|
G|--0--0--0--|--0---0--0--|--0--0--0--|--0---0--0--|
D|--4--4-----|--2---2--2--|--4--4-----|--2---2--2--|
A|--5--------|--3---3--3--|--5--------|--3---3--3--|
E|-----------|------------|-----------|------------|


[Verse]
Am7                       G
please come smile with me just one more time,
Am7                 Cmaj7
it won’t get out of hand
Am7                 G
keep doing what you’re doing now,
Am7       Cmaj7
I think I understand.
Am7              G
insight comes so fast sometimes,
Am7                    Cmaj7
with confusion in it’s wake.
Am7       G
I dug and found fools gold again,
Dadd4                      Cmaj7
but saw through it way too late.
Dadd4                     Cmaj7
I saw through you way too late

[Chorus]
e|--------2---2-----------------------------|
B|--------0---3-------------0---0--0--0--0--|
G|--1--x--0---2--4----------0---0--0--0--0--|
D|--2--x--0------4----------2---2--2--2--2--|
A|--2--x--2------2--0h2--0--3---3--3--3--3--|
E|--------3---------------------------------|
you weren’t far from me that time..

e|--------2---2-----------------------------|
B|--------0---3-------------0---0--0--0--0--|
G|--1--x--0---2--4----------0---0--0--0--0--|
D|--2--x--0------4----------2---2--2--2--2--|
A|--2--x--2------2--0h2--0--3---3--3--3--3--|
E|--------3---------------------------------|
not so far from me

e|--------2---2-----------------------------|
B|--------0---3-------------0---0--0--0--0--|
G|--1--x--0---2--4----------0---0--0--0--0--|
D|--2--x--0------4----------2---2--2--2--2--|
A|--2--x--2------2--0h2--0--3---3--3--3--3--|
E|--------3---------------------------------|
but it’s been dying all this time...

e|--------2---2-----------------------------|
B|--------0---3-------------0---0--0--0--0--|
G|--1--x--0---2--4----------0---0--0--0--0--|
D|--2--x--0------4----------2---2--2--2--2--|
A|--2--x--2------2--0h2--0--3---3--3--3--3--|
E|--------3---------------------------------|

[Verse]
Am7                G
you still mean the world to me
Am7                Cmaj7
for seconds on end sometimes.
Am7                     G
we talked until no more words were left
Am7                        Cmaj7
and the things we did were crimes.
Am7                  G
why beautiful turned ugly then,
Am7                Cmaj7
I still can’t understand-
Am7                    G
please look at me just one more time,
Dadd4                Cmaj7
I can take it if you can
Dadd4                Cmaj7
I can take it if you can

[Chorus]
e|--------2---2-----------------------------|
B|--------0---3-------------0---0--0--0--0--|
G|--1--x--0---2--4----------0---0--0--0--0--|
D|--2--x--0------4----------2---2--2--2--2--|
A|--2--x--2------2--0h2--0--3---3--3--3--3--|
E|--------3---------------------------------|
you weren’t far from me that time..

e|--------2---2-----------------------------|
B|--------0---3-------------0---0--0--0--0--|
G|--1--x--0---2--4----------0---0--0--0--0--|
D|--2--x--0------4----------2---2--2--2--2--|
A|--2--x--2------2--0h2--0--3---3--3--3--3--|
E|--------3---------------------------------|
not so far from me

e|--------2---2-----------------------------|
B|--------0---3-------------0---0--0--0--0--|
G|--1--x--0---2--4----------0---0--0--0--0--|
D|--2--x--0------4----------2---2--2--2--2--|
A|--2--x--2------2--0h2--0--3---3--3--3--3--|
E|--------3---------------------------------|
but it’s been dying all this time...

e|--------2---2-----------------------------|
B|--------0---3-------------0---0--0--0--0--|
G|--1--x--0---2--4----------0---0--0--0--0--|
D|--2--x--0------4----------2---2--2--2--2--|
A|--2--x--2------2--0h2--0--3---3--3--3--3--|
E|--------3---------------------------------|


[Solo]


[Chorus]
e|--------2---2-----------------------------|
B|--------0---3-------------0---0--0--0--0--|
G|--1--x--0---2--4----------0---0--0--0--0--|
D|--2--x--0------4----------2---2--2--2--2--|
A|--2--x--2------2--0h2--0--3---3--3--3--3--|
E|--------3---------------------------------|
you weren’t far from me that time..

e|--------2---2-----------------------------|
B|--------0---3-------------0---0--0--0--0--|
G|--1--x--0---2--4----------0---0--0--0--0--|
D|--2--x--0------4----------2---2--2--2--2--|
A|--2--x--2------2--0h2--0--3---3--3--3--3--|
E|--------3---------------------------------|
not so far from me

e|--------2---2-----------------------------|
B|--------0---3-------------0---0--0--0--0--|
G|--1--x--0---2--4----------0---0--0--0--0--|
D|--2--x--0------4----------2---2--2--2--2--|
A|--2--x--2------2--0h2--0--3---3--3--3--3--|
E|--------3---------------------------------|
but it’s been dying all this time...

e|--------2---2-----------------------------|
B|--------0---3-------------0---0--0--0--0--|
G|--1--x--0---2--4----------0---0--0--0--0--|
D|--2--x--0------4----------2---2--2--2--2--|
A|--2--x--2------2--0h2--0--3---3--3--3--3--|
E|--------3---------------------------------|


            
            
Suggest correction
Creating personal tab
Creating personal tab
You can edit any tab online and save it as your Personal.

You can edit, replace or remove any tab part or add personal notes – all changes will be seen only by you.

Personal tabs can be accessed anytime from any device, even offline.
Learn more »
Give kudos to tab author, rate the tab!
1 2 3 4 5
comments
print report bad tab
guest
You may want to rate the tab now too:
select rating
Wanna post a correction for this tab? Suggest correction