Oops, an error
Loading. Please wait.

Hell Part 1 - 2 tab

476 views 1 this week
5 commentsread comments
1 2 3 4 5
x 4
add to favorites
×
Save as Personal and add changes to this tab that will be seen only by you. Learn more ›
×
You can save this tab as Personal to edit and correct it or add notes. All changes will be seen only by you. Learn more »
launch autoscroll
font size
0
reset
how to read this tab
guitar tuner
edit
Autoscroll
slow
fast
+/-
esc
set tempo
stop
Author
Difficulty
Hell (part I - II) - Motorpsycho
Tabbed by: Meuwh
Tuning: Standard E

Part I
e|----------------------------------------|------------------|
B|----------------------------------------|------------------|
G|---------------6/7---6/7---6/7--7-6-----|------------------|
D|------------------------------------7---|------------------|
A|-7--10-9-7-9-7--(7)---(7)---(7)---------|--10-9-7-9-7------|
E|----------------------------------------|---------------0--|

e|----------------------------------------|------------------|
B|----------------------------------------|------------------|
G|---------------6/7---6/7---6/7--7-6-----|------------------|
D|------------------------------------7---|------------------|
A|-7--10-9-7-9-7--(7)---(7)---(7)---------|--10-9-7-9-7------|
E|----------------------------------------|---------------0--|

e|----------------------------------------|------------------|
B|----------------------------------------|------------------|
G|---------------6/7---6/7---6/7--7-6-----|------------------|
D|------------------------------------7---|------------------|
A|-7--10-9-7-9-7--(7)---(7)---(7)---------|--10-9-7-9-7------|
E|----------------------------------------|---------------0--|

e|----------------------------------------|------------------|
B|----------------------------------------|------------------|
G|---------------6/7---6/7---6/7--7-6-----|------------------|
D|------------------------------------7---|------------------|
A|-7--10-9-7-9-7--(7)---(7)---(7)---------|--10-9-7-9-7------|
E|----------------------------------------|---------------0--|

e|--5--5-----------5-|--7-----10--|
B|--5-----5-----5----|--7-----7---|
G|--5--------5-------|--7-----7---|
D|--7----------------|--9-----9---|
A|--7----------------|--9---------|
E|--5----------------|--7---------|

e|----------------------------------------|------------------|
B|----------------------------------------|------------------|
G|---------------6/7---6/7---6/7--7-6-----|------------------|
D|------------------------------------7---|------------------|
A|-7--10-9-7-9-7--(7)---(7)---(7)---------|--10-9-7-9-7------|
E|----------------------------------------|---------------0--|
                                                                       ~
e|--5--5-----------5-|--7-----10--|--8---10-----------8---|-10--11--|--0--|
B|--5-----5-----5----|--7-----7---|--8----------8---------|-10--11--|--0--|
G|--5--------5-------|--7-----7---|--9-------9-----9------|-11--12--|--0--|
D|--7----------------|--9-----9---|--10-------------------|-12--13--|--2--|
A|--7----------------|--9---------|--10-------------------|-12--13--|--2--|
E|--5----------------|--7---------|--8--------------------|-10--11--|--0--|



Part II
[Intro]
e|-----------------|---------------|-----------------|--------------|
B|-----------------|------------8--|-----------------|--------------|
G|-4-4--9p7-----9--|-4--9p7--------|-4-4--9p7-----9--|--4--9p7------|
D|-5-5-------9-----|-5-------9-----|-5-5-------9-----|--5------9-5--|
A|-5-5-------------|-5-------------|-5-5-------------|--5-----------|
E|-0-0-------------|-0-------------|-0-0-------------|--0-----------|

e|-----------------|---------------|-----------------|--------------|
B|-----------------|------------8--|-----------------|--------------|
G|-4-4--9p7-----9--|-4--9p7--------|-4-4--9p7-----9--|--4--9p7------|
D|-5-5-------9-----|-5-------9-----|-5-5-------9-----|--5------9-5--|
A|-5-5-------------|-5-------------|-5-5-------------|--5-----------|
E|-0-0-------------|-0-------------|-0-0-------------|--0-----------|

e|---------------------|---------------|----------------|
B|-12-12h13-15-12~-----|---------------|----------------|
G|-12--------------12~-|-9-9p7---------|-9-9h7----------|
D|---------------------|-------7-5-9-7-|-------9-5-9-7--|
A|---------------------|---------------|----------------|
E|---------------------|---------------|----------------|

e|-----------------------------------------|
B|-----------------------------------------|
G|-----------------------------------------|
D|-5-7/9h7----9p7----9p7----9p7-----5------|
A|---------10-----10-----10-----10----7-7--|
E|-----------------------------------------|

e|---------------------|---------------|----------------|
B|-12-12h13-15-12~-----|---------------|----------------|
G|-12--------------12~-|-9-9p7---------|-9-9h7----------|
D|---------------------|-------7-5-9-7-|-------9-5-9-7--|
A|---------------------|---------------|----------------|
E|---------------------|---------------|----------------|

e|----------------------------------------------|
B|----------------------------------------------|
G|----------------------------------------------|
D|-5-7/9h7----9p7----9p7----9p7-----5-9-9--9-7--|
A|---------10-----10-----10-----10----7-7--7-5--|
E|------------------------------------0-0--0-0--|

e|-----------------|---------------|-----------------|--------------|
B|-----------------|------------8--|-----------------|--------------|
G|-4-4--9p7-----9--|-4--9p7--------|-4-4--9p7-----9--|--4--9p7------|
D|-5-5-------9-----|-5-------9-----|-5-5-------9-----|--5------9-5--|
A|-5-5-------------|-5-------------|-5-5-------------|--5-----------|
E|-0-0-------------|-0-------------|-0-0-------------|--0-----------|

e|-----------------|---------------|-----------------|--------------|
B|-----------------|------------8--|-----------------|--------------|
G|-4-4--9p7-----9--|-4--9p7--------|-4-4--9p7-----9--|--4--9p7------|
D|-5-5-------9-----|-5-------9-----|-5-5-------9-----|--5------9-5--|
A|-5-5-------------|-5-------------|-5-5-------------|--5-----------|
E|-0-0-------------|-0-------------|-0-0-------------|--0-----------|

[Verse]
e|-----------------|---------------|-----------------|--------------|
B|-----------------|---------------|-----------------|--------------|
G|-4-4-------------|-4-------------|-4-4-------------|--4-----------|
D|-5-5-------------|-5--------5----|-5-5-------------|--5-----------|
A|-5-5--7-5---7----|-5--7-5--------|-5-5--7-5-----7--|--5--7-5------|
E|-0-0------7------|-0------7------|-0-0-------7-----|--0------7--3-|

e|-----------------|---------------|-----------------|--------------|
B|-----------------|---------------|-----------------|--------------|
G|-4-4-------------|-4-------------|-4-4-------------|--4-----------|
D|-5-5-------------|-5--------5----|-5-5-------------|--5-----------|
A|-5-5--7-5---7----|-5--7-5--------|-5-5--7-5-----7--|--5--7-5------|
E|-0-0------7------|-0------7------|-0-0-------7-----|--0------7--3-|

e|-----------------|---------------|-----------------|--------------|
B|-----------------|---------------|-----------------|--------------|
G|-4-4-------------|-4-------------|-4-4-------------|--4-----------|
D|-5-5-------------|-5--------5----|-5-5-------------|--5-----------|
A|-5-5--7-5---7----|-5--7-5--------|-5-5--7-5-----7--|--5--7-5------|
E|-0-0------7------|-0------7------|-0-0-------7-----|--0------7--3-|

e|-----------------|---------------|-----------------|--------------|
B|-----------------|---------------|-----------------|--------------|
G|-4-4-------------|-4-------------|-4-4-------------|--4-----------|
D|-5-5-------------|-5--------5----|-5-5-------------|--5-----------|
A|-5-5--7-5---7----|-5--7-5--------|-5-5--7-5-----7--|--5--7-5------|
E|-0-0------7------|-0------7------|-0-0-------7-----|--0------7--3-|


 3:53
e|---------------------|
B|---------------------|
G|-------14----12---9--|
D|-12----12----10---7--|
A|-10------------------|
E|---------------------|

e|-----------------|---------------|-----------------|--------------|
B|-----------------|------------8--|-----------------|--------------|
G|-4-4--9p7-----9--|-4--9p7--------|-4-4--9p7-----9--|--4--9p7------|
D|-5-5-------9-----|-5-------9-----|-5-5-------9-----|--5------9-5--|
A|-5-5-------------|-5-------------|-5-5-------------|--5-----------|
E|-0-0-------------|-0-------------|-0-0-------------|--0-----------|

[Verse]
e|-----------------|---------------|-----------------|--------------|
B|-----------------|---------------|-----------------|--------------|
G|-4-4-------------|-4-------------|-4-4-------------|--4-----------|
D|-5-5-------------|-5--------5----|-5-5-------------|--5-----------|
A|-5-5--7-5---7----|-5--7-5--------|-5-5--7-5-----7--|--5--7-5------|
E|-0-0------7------|-0------7------|-0-0-------7-----|--0------7--3-|

e|-----------------|---------------|-----------------|--------------|
B|-----------------|---------------|-----------------|--------------|
G|-4-4-------------|-4-------------|-4-4-------------|--4-----------|
D|-5-5-------------|-5--------5----|-5-5-------------|--5-----------|
A|-5-5--7-5---7----|-5--7-5--------|-5-5--7-5-----7--|--5--7-5------|
E|-0-0------7------|-0------7------|-0-0-------7-----|--0------7--3-|

e|-----------------|---------------|-----------------|--------------|
B|-----------------|---------------|-----------------|--------------|
G|-4-4-------------|-4-------------|-4-4-------------|--4-----------|
D|-5-5-------------|-5--------5----|-5-5-------------|--5-----------|
A|-5-5--7-5---7----|-5--7-5--------|-5-5--7-5-----7--|--5--7-5------|
E|-0-0------7------|-0------7------|-0-0-------7-----|--0------7--3-|

e|-----------------|---------------|-----------------|--------------|
B|-----------------|---------------|-----------------|--------------|
G|-4-4-------------|-4-------------|-4-4-------------|--4-----------|
D|-5-5-------------|-5--------5----|-5-5-------------|--5-----------|
A|-5-5--7-5---7----|-5--7-5--------|-5-5--7-5-----7--|--5--7-5------|
E|-0-0------7------|-0------7------|-0-0-------7-----|--0------7--3-|


4:00
e|----------------------------------------|------------------|
B|----------------------------------------|------------------|
G|---------------6/7---6/7---6/7--7-6-----|------------------|
D|------------------------------------7---|------------------|
A|-7--10-9-7-9-7--(7)---(7)---(7)---------|--10-9-7-9-7------|
E|----------------------------------------|---------------0--|

e|----------------------------------------|------------------|
B|----------------------------------------|------------------|
G|---------------6/7---6/7---6/7--7-6-----|------------------|
D|------------------------------------7---|------------------|
A|-7--10-9-7-9-7--(7)---(7)---(7)---------|--10-9-7-9-7------|
E|----------------------------------------|---------------0--|

e|----------------------------------------|------------------|
B|----------------------------------------|------------------|
G|---------------6/7---6/7---6/7--7-6-----|------------------|
D|------------------------------------7---|------------------|
A|-7--10-9-7-9-7--(7)---(7)---(7)---------|--10-9-7-9-7------|
E|----------------------------------------|---------------0--|

e|----------------------------------------|------------------|
B|----------------------------------------|------------------|
G|---------------6/7---6/7---6/7--7-6-----|------------------|
D|------------------------------------7---|------------------|
A|-7--10-9-7-9-7--(7)---(7)---(7)---------|--10-9-7-9-7------|
E|----------------------------------------|---------------0--|

e|--5--5-----------5-|--7-----10--|
B|--5-----5-----5----|--7-----7---|
G|--5--------5-------|--7-----7---|
D|--7----------------|--9-----9---|
A|--7----------------|--9---------|
E|--5----------------|--7---------|

4:38
e|----------------------------------------|------------------|
B|----------------------------------------|------------------|
G|---------------6/7---6/7---6/7--7-6-----|------------------|
D|------------------------------------7---|------------------|
A|-7--10-9-7-9-7--(7)---(7)---(7)---------|--10-9-7-9-7------|
E|----------------------------------------|---------------0--|

e|--5--5-----------5-|--7-----10--|--8---10-----------8---|
B|--5-----5-----5----|--7-----7---|--8----------8---------|
G|--5--------5-------|--7-----7---|--9-------9-----9------|
D|--7----------------|--9-----9---|--10-------------------|
A|--7----------------|--9---------|--10-------------------|
E|--5----------------|--7---------|--8--------------------|


4:52                 DRUMS FILL
e|----------------------|----------------------------------------------------|
B|----------------------|----------------------------------------------------|
G|----------------------|----------------------------------------------------|
D|-----------------5----|-----------------7-5--------------------------------|
A|--7p5---7p5---7-------|-----7p5---7p5--------------------------------------|
E|------7-----7---------|---------7-----7------------------------------------|


                     DRUMS FILL
e|----------------------|----------------------------------------------------|
B|----------------------|----------------------------------------------------|
G|----------------------|----------------------------------------------------|
D|-----------------5----|-----------------7-5--9-7--12-9---------------------|
A|--7p5---7p5---7-------|-----7p5---7p5--------------------------------------|
E|------7-----7---------|---------7-----7------------------------------------|


5:08
SOLOOOOOOOOOOOOO !!!


5:51
e|---------------------------------------------------------------------------|
B|---------------------------------------------------------------------------|
G|---------------------------------------------------------------------------|
D|-----------------5-----5---7-5---------------------------------------------|
A|--7p5---7p5---7-----7------------------------------------------------------|
E|------7-----7--------------------------------------------------------------|

e|---------------------------------------------------------------------------|
B|---------------------------------------------------------------------------|
G|---------------------------9-7---------------------------------------------|
D|-----------------5-----5---9-7---------------------------------------------|
A|--7p5---7p5---7-----7------------------------------------------------------|
E|------7-----7--------------------------------------------------------------|

e|---------------------------------------------------------------------------|
B|---------------------------------------------------------------------------|
G|---------------------------------------------------------------------------|
D|-----------------5-----5---7-5---------------------------------------------|
A|--7p5---7p5---7-----7------------------------------------------------------|
E|------7-----7--------------------------------------------------------------|

e|---------------------------------------------------------------------------|
B|---------------------------------------------------------------------------|
G|---------------------------9-7---------------------------------------------|
D|-----------------5-----5---9-7-----7~~-------------------------------------|
A|--7p5---7p5---7-----7--------------5~~-------------------------------------|
E|------7-----7----------------------0---------------------------------------|


e|-----------------|---------------|-----------------|--------------|
B|-----------------|------------8--|-----------------|--------------|
G|-4-4--9p7-----9--|-4--9p7--------|-4-4--9p7-----9--|--4--9p7------|
D|-5-5-------9-----|-5-------9-----|-5-5-------9-----|--5------9-5--|
A|-5-5-------------|-5-------------|-5-5-------------|--5-----------|
E|-0-0-------------|-0-------------|-0-0-------------|--0-----------|

e|-----------------|---------------|-----------------|--------------|
B|-----------------|------------8--|-----------------|--------------|
G|-4-4--9p7-----9--|-4--9p7--------|-4-4--9p7-----9--|--4--9p7------|
D|-5-5-------9-----|-5-------9-----|-5-5-------9-----|--5------9-5--|
A|-5-5-------------|-5-------------|-5-5-------------|--5-----------|
E|-0-0-------------|-0-------------|-0-0-------------|--0-----------|

[Verse]
e|-----------------|---------------|-----------------|--------------|
B|-----------------|---------------|-----------------|--------------|
G|-4-4-------------|-4-------------|-4-4-------------|--4-----------|
D|-5-5-------------|-5--------5----|-5-5-------------|--5-----------|
A|-5-5--7-5---7----|-5--7-5--------|-5-5--7-5-----7--|--5--7-5------|
E|-0-0------7------|-0------7------|-0-0-------7-----|--0------7--3-|

e|-----------------|---------------|-----------------|--------------|
B|-----------------|---------------|-----------------|--------------|
G|-4-4-------------|-4-------------|-4-4-------------|--4-----------|
D|-5-5-------------|-5--------5----|-5-5-------------|--5-----------|
A|-5-5--7-5---7----|-5--7-5--------|-5-5--7-5-----7--|--5--7-5------|
E|-0-0------7------|-0------7------|-0-0-------7-----|--0------7--3-|

e|-----------------|---------------|-----------------|--------------|
B|-----------------|---------------|-----------------|--------------|
G|-4-4-------------|-4-------------|-4-4-------------|--4-----------|
D|-5-5-------------|-5--------5----|-5-5-------------|--5-----------|
A|-5-5--7-5---7----|-5--7-5--------|-5-5--7-5-----7--|--5--7-5------|
E|-0-0------7------|-0------7------|-0-0-------7-----|--0------7--3-|

e|-----------------|---------------|-----------------|--------------|
B|-----------------|---------------|-----------------|--------------|
G|-4-4-------------|-4-------------|-4-4-------------|--4-----------|
D|-5-5-------------|-5--------5----|-5-5-------------|--5-----------|
A|-5-5--7-5---7----|-5--7-5--------|-5-5--7-5-----7--|--5--7-5------|
E|-0-0------7------|-0------7------|-0-0-------7-----|--0------7--3-|


 6:53
e|---------------------|-------------|
B|---------------------|-------------|
G|-------14----12---9--|-------------|
D|-12----12----10---7--|-7--11--9~~--|
A|-10------------------|-5--9---7~~--|
E|---------------------|-------------|



************************************

| /   slide up
| \   slide down
| h   hammer-on
| p   pull-off
| ~   vibrato

************************************

            
            
Suggest correction
Creating personal tab
Creating personal tab
You can edit any tab online and save it as your Personal.

You can edit, replace or remove any tab part or add personal notes – all changes will be seen only by you.

Personal tabs can be accessed anytime from any device, even offline.
Learn more »
comments
print report bad tab
5 comments total. Showing first comments.
+1 reply
Benbenben85 42 May 03, 2013 08:58 AM

Awesome work, great tab!

0 reply
Ercarnar 172 Jul 02, 2014 07:22 AM

Lack of accuracy.

0 reply
erchy 10 Oct 15, 2014 06:14 AM

Lack of accuracy. Tab incomplete. There are a various mistakes in the verse, there's no intro and outro tab (part one and part three), it's ok if then you use your ear to better understand the real notes in the right places

guest
You may want to rate the tab now too:
select rating
Wanna post a correction for this tab? Suggest correction