Oops, an error
Loading. Please wait.

Lacuna Sunrise intro tab

37 views 6 this week
3 commentsread comments
1 2 3 4 5
2 more votes to show rating
add to favorites
×
Save as Personal and add changes to this tab that will be seen only by you. Learn more ›
×
You can save this tab as Personal to edit and correct it or add notes. All changes will be seen only by you. Learn more »
launch autoscroll
font size
0
reset
how to read this tab
guitar tuner
edit
Autoscroll
slow
fast
+/-
esc
set tempo
stop
Artist: Motorpsycho
Song: Lacuna / Sunrise
Tuning: E-B-D-G-A-D 
Author: Meuwh


[intro]

D|-9----------|
A|---10-------|
G|------11----|
D|---------12-| X 2
B|------------|
E|------------|

D|-9--------------9--|--9---------------9--|--9---------------9--|
A|---10-----------9--|----10------------9--|----10------------9--|
G|------11--------9--|-------11---------9--|-------11---------9--|
D|---------12--------|----------12---------|----------12---------|
B|-------------------|---------------------|---------------------|
E|-------------0-----|--------------0-0----|--------------0-0----|

D|-9---------------9--9--9-|
A|---10------------9--9--9-|
G|------11---------9--9--9-|
D|---------12------9--9--9-| X 4
B|-------------------------|
E|-------------0-0---------|

D|-9---------------7--7--7-|--7--------------7--7--7--|--7--------------9--9--9--|
A|---10------------7--7--7-|-----8-----------7--7--7--|-----8-----------9--9--9--|
G|------11---------7--7--7-|-------9---------7--7--7--|-------9---------9--9--9--|
D|---------12------7--7--7-|---------10------7--7--7--|---------10------9--9--9--| 
B|-------------------------|--------------------------|--------------------------|
E|-------------0-0---------|--------------0-0---------|--------------0-0---------|

D|-9---------------9--9--9-|
A|---10------------9--9--9-|
G|------11---------9--9--9-|
D|---------12------9--9--9-|
B|-------------------------|
E|-------------0-0---------|

D|-7--7-7-7-7-7--|--7--7-7-7-7-7-| 
A|-7--7-7-7-7-7--|--7--7-7-7-7-7-| 
G|-7--7-7-7-7-7--|--7--7-7-7-7-7-| 
D|-7--7-7-7-7-7--|--7--7-7-7-7-7-| 
B|---------------|---------------| 
E|---------------|---------------|

D|-9---------------9-|--9-------------9-|
A|---10------------9-|----10----------9-|
G|------11---------9-|-------11-------9-|
D|---------12------9-|----------12----9-|
B|-------------------|------------------|
E|-------------0-0---|--------------0---|

                  (Solo starts here)
D|-9-------------9-|--9-------------9-|--9-------------9-|--9-------------9-|
A|---10----------9-|----10----------9-|----10----------9-|----10----------9-|
G|------11-------9-|-------11-------9-|-------11-------9-|-------11-------9-|
D|---------12----9-|----------12----9-|----------12----9-|----------12----9-|
B|-----------------|------------------|------------------|------------------|
E|-------------0---|--------------0---|--------------0---|--------------0---|

D|-9---------------7--7--7-|--7--------------7--7--7--|--7--------------9--9--9-|
A|---10------------7--7--7-|-----8-----------7--7--7--|-----8-----------9--9--9-|
G|------11---------7--7--7-|-------9---------7--7--7--|-------9---------9--9--9-|
D|---------12------7--7--7-|---------10------7--7--7--|---------10------9--9--9-| 
B|-------------------------|--------------------------|-------------------------|
E|-------------0-0---------|--------------0-0---------|--------------0-0--------|

    (Solo) Play this bar at the same time
D|-16~--17-19-16--|--16~--17-19-16--|--14~--15-17-19-17-15-14-|--16~--17-16-14-|
A|----------------|-----------------|-------------------------|----------------|
G|----------------|-----------------|-------------------------|----------------|
D|----------------|-----------------|-------------------------|----------------|
B|----------------|-----------------|-------------------------|----------------|
E|----------------|-----------------|-------------------------|----------------|

D|-12--10--9----------------|-9--------------|--9-9-9-|
A|------------12--10--9-----|---10-----------|--9-9-9-|
G|-----------------------9--|------11--------|--9-9-9-|
D|--------------------------|---------12/14~-|--9-9-9-|
B|--------------------------|----------------|--------|
E|--------------------------|----------------|--------|


[Verse]

  The taste of blood's metallic spray

D|---------7-----------------7--------|
A|-----8-7---7-8---------8-7---7-8----|
G|-7-9-----------7---7-9-----------7--|
D|------------------------------------|
B|------------------------------------|
E|------------------------------------|

  the snot and the dry crusted
  gunk feels like clay

D|------------------------------------|
A|------------------------------------|
G|------------------------------------|
D|------------------------------------|
B|------------------------------------|
E|------------------------------------|

  that keeps rattling 'round my brain

D|---------7-----------------7--------|
A|-----8-7---7-8---------8-7---7-8----|
G|-7-9-----------7---7-9-----------7--|
D|------------------------------------|
B|------------------------------------|
E|------------------------------------|

  the shame has chased all
  the memories away.

D|------------------------------------|
A|------------------------------------|
G|------------------------------------|
D|------------------------------------|
B|------------------------------------|
E|------------------------------------|


[Bridge]

D|-9---------------9--9--9-|
A|---10------------9--9--9-|
G|------11---------9--9--9-|
D|---------12------9--9--9-| X 4
B|-------------------------|
E|-------------0-0---------|


[Verse]

  The sound of sirens in my mind

D|---------7-----------------7--------|
A|-----8-7---7-8---------8-7---7-8----|
G|-7-9-----------7---7-9-----------7--|
D|------------------------------------|
B|------------------------------------|
E|------------------------------------|

  oblivion a million years behind

D|------------------------------------|
A|------------------------------------|
G|------------------------------------|
D|------------------------------------|
B|------------------------------------|
E|------------------------------------|

  the curtain drawn, the magic line

D|---------7-----------------7--------|
A|-----8-7---7-8---------8-7---7-8----|
G|-7-9-----------7---7-9-----------7--|
D|------------------------------------|
B|------------------------------------|
E|------------------------------------|

 the armour we all must hide behind

D|------------------------------------|
A|------------------------------------|
G|------------------------------------|
D|------------------------------------|
B|------------------------------------|
E|------------------------------------|




**********************

/  Slide up
~  Vibrato

**********************

            
            
Suggest correction
Creating personal tab
Creating personal tab
You can edit any tab online and save it as your Personal.

You can edit, replace or remove any tab part or add personal notes – all changes will be seen only by you.

Personal tabs can be accessed anytime from any device, even offline.
Learn more »
Give kudos to tab author, rate the tab!
1 2 3 4 5
comments
print report bad tab
3 comments total.
+1 reply
pirklbauer31 82 Aug 09, 2017 08:28 PM

I was looking a very long time for tabs for this!
THank you, do you think you could tab other parts of the song too?

guest
You may want to rate the tab now too:
select rating
Wanna post a correction for this tab? Suggest correction