Oops, an error
Loading. Please wait.

Sideway Spiral 3 tab

10 views 1 this week
no commentswrite comment
1 2 3 4 5
3 more votes to show rating
add to favorites
×
Save as Personal and add changes to this tab that will be seen only by you. Learn more ›
×
You can save this tab as Personal to edit and correct it or add notes. All changes will be seen only by you. Learn more »
launch autoscroll
font size
0
reset
how to read this tab
guitar tuner
edit
Autoscroll
slow
fast
+/-
esc
set tempo
stop
https://www.ultimate-guitar.com/forum/redirect/post?p=34563132
Song: Sideway Spiral III
Tabbed by: Meuwh
Tuning: Standard E

Note: this song only exist on live shows:

https://www.youtube.com/watch?v=CdIVwU4ycBI

The 'solo' isn't tabbed because this is always some improvisation

[Intro]
e|------|---------|--3--|-----|--3--|-----|
B|------|---------|--3--|-----|--3--|-----|
G|--11--|---------|--4--|-----|--4--|-----|
D|--12--|--11-14--|--5--|--2--|--5--|--2--|
A|--12--|--12-12--|--5--|--2--|--5--|--2--|
E|--10--|---------|--3--|--0--|--3--|--0--|

e|------|---------|--3--|-----|--3--|-----|--3--|--5--|
B|------|---------|--3--|-----|--3--|-----|--3--|--5--|
G|--11--|---------|--4--|-----|--4--|-----|--4--|--6--|
D|--12--|--11-14--|--5--|--2--|--5--|--2--|--5--|--7--| 
A|--12--|--12-12--|--5--|--2--|--5--|--2--|--5--|--7--|
E|--10--|---------|--3--|--0--|--3--|--0--|--3--|--5--|

[Verse]
   Head over heels in            on borrowed wings 
   a sideway spiral              and with senses so idle
e|---------------------------|---------|
B|---------------------------|---------|
G|--11-----------------------|---------|
D|--12-----------------------|--11-14--|
A|--12-----------------------|--12-12--|
E|--10-----------------------|---------|
   
   Aaaaaaah haaaaaa ...
e|--3--|-----|--3--|-----|
B|--3--|-----|--3--|-----|
G|--4--|-----|--4--|-----|
D|--5--|--2--|--5--|--2--|
A|--5--|--2--|--5--|--2--|
E|--3--|--0--|--3--|--0--|

   high on the hopes 'fore      borrowed wings 
   the chemical wedding on      and with senses so idle
e|---------------------------|---------|
B|---------------------------|---------|
G|--11-----------------------|---------|
D|--12-----------------------|--11-14--|
A|--12-----------------------|--12-12--|
E|--10-----------------------|---------|
   
   (Aaaaaaah haaaaaa ...)
   the promised state in the perfect setting
   praying to the beat - craving to be real
e|--3--|-----|--3--|-----|
B|--3--|-----|--3--|-----|
G|--4--|-----|--4--|-----|
D|--5--|--2--|--5--|--2--|
A|--5--|--2--|--5--|--2--|
E|--3--|--0--|--3--|--0--|

   I'm right (x3)   I'm wrong
e|--3-------------|--5--|
B|--3-------------|--5--|
G|--4-------------|--6--|
D|--5-------------|--7--|
A|--5-------------|--7--|
E|--3-------------|--5--|

[Verse]
   So he said                   and your delusions 
   'cause so he'd read          are mine instead
e|---------------------------|---------|
B|---------------------------|---------|
G|--11-----------------------|---------|
D|--12-----------------------|--11-14--|
A|--12-----------------------|--12-12--|
E|--10-----------------------|---------|

   Aaaaaaah haaaaaa ...
e|--3--|-----|--3--|-----|
B|--3--|-----|--3--|-----|
G|--4--|-----|--4--|-----|
D|--5--|--2--|--5--|--2--|
A|--5--|--2--|--5--|--2--|
E|--3--|--0--|--3--|--0--|

   convincing smiles             a curse put on 
   will feed the mind            those left behind
e|---------------------------|---------|
B|---------------------------|---------|
G|--11-----------------------|---------|
D|--12-----------------------|--11-14--|
A|--12-----------------------|--12-12--|
E|--10-----------------------|---------|

   your wizzard's out on bail
   the perfect trip's on sale
e|--3--|-----|--3--|-----|
B|--3--|-----|--3--|-----|
G|--4--|-----|--4--|-----|
D|--5--|--2--|--5--|--2--|
A|--5--|--2--|--5--|--2--|
E|--3--|--0--|--3--|--0--|

   I'm right (x3)   I'm wrong
e|--3-------------|--5--|
B|--3-------------|--5--|
G|--4-------------|--6--|
D|--5-------------|--7--|
A|--5-------------|--7--|
E|--3-------------|--5--|

[Chorus]
Spinning            'round
e|--3-------------|--5--|
B|--3-------------|--5--|
G|--4-------------|--6--|
D|--5-------------|--7--|
A|--5-------------|--7--|
E|--3-------------|--5--|

sideways            down
e|--3-------------|--5--|
B|--3-------------|--5--|
G|--4-------------|--6--|
D|--5-------------|--7--|
A|--5-------------|--7--|
E|--3-------------|--5--|

Spinning            'round
e|--3-------------|--5--|
B|--3-------------|--5--|
G|--4-------------|--6--|
D|--5-------------|--7--|
A|--5-------------|--7--|
E|--3-------------|--5--|

[Bridge]
e|------------|-------------|
B|------------|-------------|
G|------------|-------------|
D|------------|-------------|
A|----------2-|--------2-4--|
E|--3-3-3-5---|--5-5-5------|

[Verse]
When concentration comes at last
make shure to blame the highest caste
from way out in the skies
that made you realise.....

e|--3--|--1--|--3--|
B|--3--|--1--|--3--|
G|--4--|--2--|--4--|
D|--5--|--3--|--5--|
A|--5--|--3--|--5--|
E|--3--|--1--|--3--|

[Instrumental]
Solo is some improvisation

[Verse]
   Head over heels in            on borrowed wings 
   a sideway spiral              and with senses so idle
e|---------------------------|---------|
B|---------------------------|---------|
G|--11-----------------------|---------|
D|--12-----------------------|--11-14--|
A|--12-----------------------|--12-12--|
E|--10-----------------------|---------|
   
   Aaaaaaah haaaaaa ...
e|--3--|-----|--3--|-----|
B|--3--|-----|--3--|-----|
G|--4--|-----|--4--|-----|
D|--5--|--2--|--5--|--2--|
A|--5--|--2--|--5--|--2--|
E|--3--|--0--|--3--|--0--|

   high on the hopes 'fore      borrowed wings 
   the chemical wedding on      and with senses so idle
e|---------------------------|---------|
B|---------------------------|---------|
G|--11-----------------------|---------|
D|--12-----------------------|--11-14--|
A|--12-----------------------|--12-12--|
E|--10-----------------------|---------|
   
   (Aaaaaaah haaaaaa ...)
   the promised state in the perfect setting
   praying to the beat - craving to be real
e|--3--|-----|--3--|-----|
B|--3--|-----|--3--|-----|
G|--4--|-----|--4--|-----|
D|--5--|--2--|--5--|--2--|
A|--5--|--2--|--5--|--2--|
E|--3--|--0--|--3--|--0--|

   I'm right (x3)   I'm wrong
e|--3-------------|--5--|
B|--3-------------|--5--|
G|--4-------------|--6--|
D|--5-------------|--7--|
A|--5-------------|--7--|
E|--3-------------|--5--|

[Chorus]
Spinning            'round
e|--3-------------|--5--|
B|--3-------------|--5--|
G|--4-------------|--6--|
D|--5-------------|--7--|
A|--5-------------|--7--|
E|--3-------------|--5--|

sideways            down
e|--3-------------|--5--|
B|--3-------------|--5--|
G|--4-------------|--6--|
D|--5-------------|--7--|
A|--5-------------|--7--|
E|--3-------------|--5--|

Spinning            'round
e|--3-------------|--5--|
B|--3-------------|--5--|
G|--4-------------|--6--|
D|--5-------------|--7--|
A|--5-------------|--7--|
E|--3-------------|--5--|

            
            
Suggest correction
Creating personal tab
Creating personal tab
You can edit any tab online and save it as your Personal.

You can edit, replace or remove any tab part or add personal notes – all changes will be seen only by you.

Personal tabs can be accessed anytime from any device, even offline.
Learn more »
Give kudos to tab author, rate the tab!
1 2 3 4 5
comments
print report bad tab
guest
You may want to rate the tab now too:
select rating
Wanna post a correction for this tab? Suggest correction