Oops, an error
Loading. Please wait.

Sungravy Tab

317 views 1 this week
no commentswrite comment
1 2 3 4 5
please rate
add to favorites
launch autoscroll
font size
0
reset
how to read this tab
guitar tuner
Autoscroll
slow
fast
+/-
esc
set tempo
stop
Help us to improve Ultimate-Guitar.com Take our survey!
×
Author
Difficulty
intermediate
From Timothy's monster

Tuning: DADF#AD

S over a chord means strumming (not just one strum).

Thanks to Kristoffer for the tuning and Vlad and his watersound-for-one tab

INTRO:
   S           S    S                         S
|--0--0--0--0--0----0--0--0--0--0--0--(0)--0--0-----|
|--0--0--0--0--0----0--0--0--0--0--0--(0)--0--0-----|
|--5--3--1--3--0----5--3--1--0--0--1--(0)--1--0-----|
|--0--0--0--0--0----0--0--0--0--0--0--(0)--0--0-----|
|--5--4--2--4--0----5--4--2--0--0--2--(0)--2--0-----|
|--0--0--0--0--0----0--0--0--0--0--0--(0)--0--0-----|


   S           S    S
|--0--0--0--0--0----0--0--0--0--0--0-----0-----|
|--0--0--0--0--0----0--0--0--0--0--0-----0-----|
|--5--3--1--3--0----x--x--x--x--x--0-----0-----|
|--0--0--0--0--0----4--4--4--2--2--0-----0-----|
|--5--4--2--4--0----2--2--2--0--0--0-----0-----|
|--0--0--0--0--0----------------------0--0-----|




 VERSE (strummin almost all the time)            #
|----0--------0---------0----------------0---0---0-----0----0-----0--------|
|----0--------0---------0----------------0---0---0-----0----0-----0--------|
|----x--------5---------5----------------3---1---3-----0----1-----0--------|
|----7--------5---------0----------------0---0---0-----0----0-----0--------|
|----5--------5---------5----------------4---2---4-----0----2-----0--------|
|----0--------5---------0----------------0---0---0-----0----0-----0--------|
 You say....  how I...  now there's...  that can touch you (or something)
 I pretend... shrug it...(etc)


|--0--0---0------0------0-----------0---0---0----|
|--0--0---0------0------0-----------0---0---0----|
|--8--7---5------0------1-----------0---1---0----|
|--0--0---0------0------0-----------0---0---0----|
|--9--7---5------0------2-----------0---2---0----|
|--0--0---0------0------0-----------0---0---0----|
  staring at the sun watching so tall
  I went blind....

Then intro with cello or something. It's almost like the intro, 
but not quite, but you have all the chords by now. In the second 
verse, don't play the chord marked #.
                                                       
|--0----------------0------------------|
|--0----------------0------------------|
|--1----------------0------------------|
|--0----------------0------------------|
|--2----------------0------------------|
|--0----------------0------------------|
  And if I could... fly you..
  and if I could... chase away
  Until you...      thousand...
  over, you...      there...
  lock up..         run away...
  betray            you...
  lost on a...      rainy...
  sun


Morten G.

Lyrics:

you say that I don't understand
that it's how I survive
now there's nothing that can touch you
I pretend that I really care
when I just shrug it all away
I know that it's wrong,but it keeps me breathing
      staring at the sun-watching so tall
      I went blind and saw nothing at all
I wish that I could fly away,walk on air
really see things as they are
to show you everything- to learn from you 
to rise and fall in my own time
      Staring at the sun-watching so tall
      I went blind and saw nothing at all
 but if I could, I'd fly you to the moon
 and if I could, I'd chase away your gloom
 until you shone like a thousand suns,so bright
 that when it was over ,you'd laugh and pretend
 I was never even there.

lock up and run away,I won't betray you
lost on a rainy day in the sun................
Suggest correction
What's this?
You can suggest a correction to this tab. Community and Mods will review your correction and vote to approve or reject it.
comments
We did not receive enough feedback on this tab! Please rate:
print report bad tab
1 2 3 4 5
guest
You may want to rate the tab now too:
select rating
Please do not post tabs as comments. Select "correction" instead!