Oops, an error
Loading. Please wait.

Sungravy tab

version 2
version 2

Whole song

7 views 1 this week
no commentswrite comment
1 2 3 4 5
3 more votes to show rating
add to favorites
×
Save as Personal and add changes to this tab that will be seen only by you. Learn more ›
×
You can save this tab as Personal to edit and correct it or add notes. All changes will be seen only by you. Learn more »
launch autoscroll
font size
0
reset
how to read this tab
guitar tuner
edit
Autoscroll
slow
fast
+/-
esc
set tempo
stop
Artist: Motorpsycho
Song: Sungravy
Tabbed by: Meuwh
Tuning: DADF#AD

Note: Strum all the parts except these ones

D |-0--0--0---0--0--0-|
A |-0--0--0---0--0--0-|
F#|-3--1--3---0--1--0-|
D |-0--0--0---0--0--0-|
A |-4--2--4---0--2--0-|
D |-0--0--0---0--0--0-|

[Intro]
D |--0-0-0-0-0--0--0--0--0--0-0-0--|--0--0--0--0--0--0--(0)--0--0-0-0-|
A |--0-0-0-0-0--0--0--0--0--0-0-0--|--0--0--0--0--0--0--(0)--0--0-0-0-|
F#|--5-5-5-5-5--3--1--3--0--0-0-0--|--5--3--1--0--0--1--(0)--1--0-0-0-|
D |--0-0-0-0-0--0--0--0--0--0-0-0--|--0--0--0--0--0--0--(0)--0--0-0-0-|
A |--5-5-5-5-5--4--2--4--0--0-0-0--|--5--4--2--0--0--2--(0)--2--0-0-0-|
D |--0-0-0-0-0--0--0--0--0--0-0-0--|--0--0--0--0--0--0--(0)--0--0-0-0-|

D |--0-0-0-0-0--0--0--0--0--0-0-0--|--0-0-0-0-0-0----0-0-0-|
A |--0-0-0-0-0--0--0--0--0--0-0-0--|--0-0-0-0-0-0----0-0-0-|
F#|--5-5-5-5-5--3--1--3--0--0-0-0--|--0-0-0-0-0-0----0-0-0-|
D |--0-0-0-0-0--0--0--0--0--0-0-0--|--4-4-4-2-2-0----0-0-0-|
A |--5-5-5-5-5--4--2--4--0--0-0-0--|--2-2-2-0-0-0----0-0-0-|
D |--0-0-0-0-0--0--0--0--0--0-0-0--|--------------0--0-0-0-|

[Verse]

you say that I don’t understand that 
it’s how I survive
now there’s nothing that can touch you

D |--0----0----0--|--0--0--0---0--0--0-|
A |--0----0----0--|--0--0--0---0--0--0-|
F#|--0----5----5--|--3--1--3---0--1--0-|
D |--7----5----0--|--0--0--0---0--0--0-|
A |--5----5----5--|--4--2--4---0--2--0-|
D |--0----5----0--|--0--0--0---0--0--0-|

I pretend that I really care
when I just shrug it all away
I know that it’s wrong, but it keeps me breathing

D |--0----0----0--|--0--0--0---0--0--0-|
A |--0----0----0--|--0--0--0---0--0--0-|
F#|--0----5----5--|--3--1--3---0--1--0-|
D |--7----5----0--|--0--0--0---0--0--0-|
A |--5----5----5--|--4--2--4---0--2--0-|
D |--0----5----0--|--0--0--0---0--0--0-|

[Chorus]

staring at the sun - watching so tall

D |--0---0---0--|--0---0---0---0---0--|
A |--0---0---0--|--0---0---0---0---0--|
F#|--8---7---5--|--0---1---0---1---0--|
D |--0---0---0--|--0---0---0---0---0--|
A |--9---7---5--|--0---2---0---2---0--|
D |--0---0---0--|--0---0---0---0---0--|

I went blind and saw nothing at all

D |--0---0---0--|--0---0---0---0---0--|
A |--0---0---0--|--0---0---0---0---0--|
F#|--8---7---5--|--0---1---0---1---0--|
D |--0---0---0--|--0---0---0---0---0--|
A |--9---7---5--|--0---2---0---2---0--|
D |--0---0---0--|--0---0---0---0---0--|

[Instrumental]
D |--0-0-0-0-0--0--0--0--0--0-0-0--|--0--0--0--0--0--0--(0)--0--0-0-0-|
A |--0-0-0-0-0--0--0--0--0--0-0-0--|--0--0--0--0--0--0--(0)--0--0-0-0-|
F#|--5-5-5-5-5--3--1--3--0--0-0-0--|--5--3--1--0--0--1--(0)--1--0-0-0-|
D |--0-0-0-0-0--0--0--0--0--0-0-0--|--0--0--0--0--0--0--(0)--0--0-0-0-|
A |--5-5-5-5-5--4--2--4--0--0-0-0--|--5--4--2--0--0--2--(0)--2--0-0-0-|
D |--0-0-0-0-0--0--0--0--0--0-0-0--|--0--0--0--0--0--0--(0)--0--0-0-0-|

[Verse]

I wish that I could fly away, walk on air
really see things as they are

D |--0----0----0--|--0--0--0---0--0--0--|
A |--0----0----0--|--0--0--0---0--0--0--|
F#|--0----5----5--|--3--1--3---0--1--0--|
D |--7----5----0--|--0--0--0---0--0--0--|
A |--5----5----5--|--4--2--4---0--2--0--|
D |--0----5----0--|--0--0--0---0--0--0--|

to show you everything- to learn from you
to rise and fall in my own time

D |--0----0----0--|--0--0--0---0--0--0--|
A |--0----0----0--|--0--0--0---0--0--0--|
F#|--0----5----5--|--3--1--3---0--1--0--|
D |--7----5----0--|--0--0--0---0--0--0--|
A |--5----5----5--|--4--2--4---0--2--0--|
D |--0----5----0--|--0--0--0---0--0--0--|

[Chorus]

staring at the sun - watching so tall

D |--0---0---0--|--0---0---0---0---0--|
A |--0---0---0--|--0---0---0---0---0--|
F#|--8---7---5--|--0---1---0---1---0--|
D |--0---0---0--|--0---0---0---0---0--|
A |--9---7---5--|--0---2---0---2---0--|
D |--0---0---0--|--0---0---0---0---0--|

I went blind and saw nothing at all

D |--0---0---0--|--0---0---0---0---0--|
A |--0---0---0--|--0---0---0---0---0--|
F#|--8---7---5--|--0---1---0---1---0--|
D |--0---0---0--|--0---0---0---0---0--|
A |--9---7---5--|--0---2---0---2---0--|
D |--0---0---0--|--0---0---0---0---0--|

[Verse]
D |--0-0-0-0-0--0-0-0-0-0-|-0-0-0-0-0-0-0-0-0-0--|
A |--0-0-0-0-0--0-0-0-0-0-|-0-0-0-0-0-0-0-0-0-0--|
F#|--1-1-1-1-1--1-1-1-1-1-|-0-0-0-0-0-0-0-0-0-0--|
D |--0-0-0-0-0--0-0-0-0-0-|-0-0-0-0-0-0-0-0-0-0--|
A |--2-2-2-2-2--2-2-2-2-2-|-0-0-0-0-0-0-0-0-0-0--|
D |--0-0-0-0-0--0-0-0-0-0-|-0-0-0-0-0-0-0-0-0-0--|

but if I could, I’d fly you to the moon
and if I could, I’d chase away your gloom
until you shone like a thousand suns, so bright
that when it was over, you’d laugh and pretend
I was never even there.
lock up and run away, I won’t betray you
lost on a rainy day in the sun



************************************

| (n)  Ghost note
|      
| #    

************************************
Suggest correction
Creating personal tab
Creating personal tab
You can edit any tab online and save it as your Personal.

You can edit, replace or remove any tab part or add personal notes – all changes will be seen only by you.

Personal tabs can be accessed anytime from any device, even offline.
Learn more »
Give kudos to tab author, rate the tab!
1 2 3 4 5
comments
print report bad tab
guest
You may want to rate the tab now too:
select rating
Wanna post a correction for this tab? Suggest correction