Oops, an error
Loading. Please wait.

Uberwagner Or A Billion Bubbles In My Mind tab

22 views 1 this week
no commentswrite comment
1 2 3 4 5
3 more votes to show rating
add to favorites
×
Save as Personal and add changes to this tab that will be seen only by you. Learn more ›
×
You can save this tab as Personal to edit and correct it or add notes. All changes will be seen only by you. Learn more »
launch autoscroll
font size
0
reset
how to read this tab
guitar tuner
edit
Autoscroll
slow
fast
+/-
esc
set tempo
stop
Artist: Motorpsycho
Song: Uberwagner Or A Billion Bubbles In My Mind
Tabbed by: Meuwh
Tuning: Standard E

[Intro]
e|----|
B|-2~-|
G|-2~-|
D|-2~-|
A|----|
E|----|

e|----------|
B|-------2--|
G|-------2--|
D|-------2--| (x16)
A|-0-0-0----|
E|----------|

e|---------------------|-----------------|
B|-5--7--8--12--15--14-|-5--7--8--12--14-|
G|-x--x--x--x---x---x--|-x--x--x--x---x--|
D|-2--4--5--9---12--11-|-2--4--5--9---11-| (x3)
A|-0--0--0--0---0---0--|-0--0--0--0---0--|
E|---------------------|-----------------|

e|---------------------|-----------------|
B|-5--7--8--12--15--14-|-5--7--8--12--14-|
G|-x--x--x--x---x---x--|-x--x--x--x---x--|
D|-2--4--5--9---12--11-|-2--4--5--9---11-|
A|-0--0--0--0---0---0--|-0--0--0--0---0--|
E|---------------------|-----------------|

e|--------------------------------------------------------------|
B|-1-1-1-1-1-1-1-1-1-1-1-1-1-1-1-1-1----------------------------|
G|-2-2-2-2-2-2-2-2-2-2-2-2-2-2-2-2-2--2-2-2-2-2-2-2-2-2-2-2-2-2-|
D|-2-2-2-2-2-2-2-2-2-2-2-2-2-2-2-2-2--2-2-2-2-2-2-2-2-2-2-2-2-2-| (x2)
A|-0-0-0-0-0-0-0-0-0-0-0-0-0-0-0-0-0--0-0-0-0-0-0-0-0-0-0-0-0-0-|
E|--------------------------------------------------------------|

e|-----------------------------------------------------------------------|
B|-1-1-1-1-1-1-1-1-1-1-1-1-1-1-1-1-1--1-1-1-1-1-1-1-1-1-1-1-1-1-1-1-1-1--|
G|-2-2-2-2-2-2-2-2-2-2-2-2-2-2-2-2-2--2-2-2-2-2-2-2-2-2-2-2-2-2-2-2-2-2--|
D|-2-2-2-2-2-2-2-2-2-2-2-2-2-2-2-2-2--2-2-2-2-2-2-2-2-2-2-2-2-2-2-2-2-2--|
A|-0-0-0-0-0-0-0-0-0-0-0-0-0-0-0-0-0--0-0-0-0-0-0-0-0-0-0-0-0-0-0-0-0-0--|
E|-----------------------------------------------------------------------|

e|---------------------------|
B|---------------------------|
G|-2-2-2-2-2-2-2-2-2-2-2-2-2-|
D|-2-2-2-2-2-2-2-2-2-2-2-2-2-|
A|-0-0-0-0-0-0-0-0-0-0-0-0-0-|
E|---------------------------|

[Verse]

it blows a billion bubbles in my mind
if my conscience is all I'll ever find
hindsight is only now in reverse
the best view is right from the back of a hearse
you always find the truth in dark places

  (Start verse with this chord)
e|----|
B|-2~-|
G|-2~-|
D|-2~-| 
A|----|
E|----|

  (Keep playing this during the verse)
e|----------|
B|-------2--|
G|-------2--|
D|-------2--| (x16)
A|-0-0-0----|
E|----------|

[Verse]

I understand your need to feel you're right
to stand erect and gaze into the light
the void in your hearts and the holes in your souls
you fill with the grandeur and power of gold
and raise your righteous voices in anger

  (Start everything line with this chord)
e|----|
B|-2~-|
G|-2~-|
D|-2~-|
A|----|
E|----|

  (Keep playing this during the verse)
e|----------|
B|-------2--|
G|-------2--|
D|-------2--| (x16)
A|-0-0-0----|
E|----------|

[Bridge]
e|---------------------|-----------------|
B|-5--7--8--12--15--14-|-5--7--8--12--14-|
G|-x--x--x--x---x---x--|-x--x--x--x---x--|
D|-2--4--5--9---12--11-|-2--4--5--9---11-| (x3)
A|-0--0--0--0---0---0--|-0--0--0--0---0--|
E|---------------------|-----------------|

e|---------------------|-----------------|
B|-5--7--8--12--15--14-|-5--7--8--12--14-|
G|-x--x--x--x---x---x--|-x--x--x--x---x--|
D|-2--4--5--9---12--11-|-2--4--5--9---11-|
A|-0--0--0--0---0---0--|-0--0--0--0---0--|
E|---------------------|-----------------|

e|-2-2-2-|-------|-2-2-2-|-------|
B|-3-3-3-|-------|-2-2-2-|-2-2-2-|
G|-2-2-2-|-1-1-1-|-2-2-2-|-2-2-2-|
D|-------|-2-2-2-|-4-4-4-|-2-2-2-|
A|-------|-2-2-2-|-4-4-4-|-------|
E|-------|-------|-2-2-2-|-------|

[Verse]

it blows a billion bubbles in my mind
if my conscience is all I'll ever find
gambling is dull when you know you will win
if nothing is sacred you can't live in sin

  (Keep playing this during the verse)
e|---|
B|-2-|
G|-2-|
D|-2-| (x64)
A|---|
E|---|

   I wish I had some of your moral

e|-2----------------------------------|
B|-3------------------2---------------|
G|-2-------1----------2----1----------|
D|---------2----------2----2----------|
A|---------2---------------2----------|
E|------------------------------------|


codes as a guideline

e|---|
B|-2-|
G|-2-|
D|-2-| (x16)
A|---|
E|---|

support as a foothold

e|-2-|
B|-2-|
G|-2-|
D|-4-| (x16)
A|-4-|
E|-2-|

stands to confine me

e|---|
B|-2-|
G|-2-|  
D|-2-| (x16) 
A|---|
E|---|

courage to stay bold

e|-2-|
B|-2-|
G|-2-|
D|-4-| (x16)
A|-4-|
E|-2-|

e|--------------------------------------------------------------|
B|-1-1-1-1-1-1-1-1-1-1-1-1-1-1-1-1-1----------------------------|
G|-2-2-2-2-2-2-2-2-2-2-2-2-2-2-2-2-2--2-2-2-2-2-2-2-2-2-2-2-2-2-|
D|-2-2-2-2-2-2-2-2-2-2-2-2-2-2-2-2-2--2-2-2-2-2-2-2-2-2-2-2-2-2-| (x2)
A|-0-0-0-0-0-0-0-0-0-0-0-0-0-0-0-0-0--0-0-0-0-0-0-0-0-0-0-0-0-0-|
E|--------------------------------------------------------------|

e|-----------------------------------------------------------------------|
B|-1-1-1-1-1-1-1-1-1-1-1-1-1-1-1-1-1--1-1-1-1-1-1-1-1-1-1-1-1-1-1-1-1-1--|
G|-2-2-2-2-2-2-2-2-2-2-2-2-2-2-2-2-2--2-2-2-2-2-2-2-2-2-2-2-2-2-2-2-2-2--|
D|-2-2-2-2-2-2-2-2-2-2-2-2-2-2-2-2-2--2-2-2-2-2-2-2-2-2-2-2-2-2-2-2-2-2--|
A|-0-0-0-0-0-0-0-0-0-0-0-0-0-0-0-0-0--0-0-0-0-0-0-0-0-0-0-0-0-0-0-0-0-0--|
E|-----------------------------------------------------------------------|

[Solo]
e|--10h12-10-12b13--10\9-10--7h9-7-|
B|---------------------------------|
G|---------------------------------|
D|---------------------------------|
A|---------------------------------|
E|---------------------------------|

[Outro]

it blows a billion bubbles in my mind
mind over matter
my terrestial point of view
useless in blows...

e|---------------------|-----------------|
B|-5--7--8--12--15--14-|-5--7--8--12--14-|
G|-x--x--x--x---x---x--|-x--x--x--x---x--|
D|-2--4--5--9---12--11-|-2--4--5--9---11-| (x7)
A|-0--0--0--0---0---0--|-0--0--0--0---0--|
E|---------------------|-----------------|

e|---------------------|-----------------|
B|-5--7--8--12--15--14-|-5--7--8--12--14-|
G|-x--x--x--x---x---x--|-x--x--x--x---x--|
D|-2--4--5--9---12--11-|-2--4--5--9---11-|
A|-0--0--0--0---0---0--|-0--0--0--0---0--|
E|---------------------|-----------------|

e|--------------------------------------------------------------|
B|-1-1-1-1-1-1-1-1-1-1-1-1-1-1-1-1-1----------------------------|
G|-2-2-2-2-2-2-2-2-2-2-2-2-2-2-2-2-2--2-2-2-2-2-2-2-2-2-2-2-2-2-|
D|-2-2-2-2-2-2-2-2-2-2-2-2-2-2-2-2-2--2-2-2-2-2-2-2-2-2-2-2-2-2-|
A|-0-0-0-0-0-0-0-0-0-0-0-0-0-0-0-0-0--0-0-0-0-0-0-0-0-0-0-0-0-0-|
E|--------------------------------------------------------------|


***********************************

| /   Slide up
| \   Slide down
| h   Hammer-on
| p   Pull-off
| ~   Vibrato
| x   Dead note
| b   Bend

***********************************

            
            
Suggest correction
Creating personal tab
Creating personal tab
You can edit any tab online and save it as your Personal.

You can edit, replace or remove any tab part or add personal notes – all changes will be seen only by you.

Personal tabs can be accessed anytime from any device, even offline.
Learn more »
Give kudos to tab author, rate the tab!
1 2 3 4 5
comments
print report bad tab
guest
You may want to rate the tab now too:
select rating
Wanna post a correction for this tab? Suggest correction