Oops, an error
Loading. Please wait.

Watersound tab

22 views 1 this week
no commentswrite comment
1 2 3 4 5
3 more votes to show rating
add to favorites
×
Save as Personal and add changes to this tab that will be seen only by you. Learn more ›
×
You can save this tab as Personal to edit and correct it or add notes. All changes will be seen only by you. Learn more »
launch autoscroll
font size
0
reset
how to read this tab
guitar tuner
edit
Autoscroll
slow
fast
+/-
esc
set tempo
stop
About this tab version
Easy to read because of the lyrics and correct chords. Was this info helpful? Yes No
Watersound - Motorpsycho
Tabbed by: Meuwh
Tuning: DADF#AD

[Intro]
D |-0-|------------------|------------------|-----------------|---------------------|
A |-0-|------------------|------------------|-----------------|---------------------|
F#|-0-|-10h11-10-8-10-10-|-10h11-10-8-10-10-|10h11-10-8-10-10-|-10h11-10-8-10-10--10|
D |-0-|--0--0--0-0--0--0-|--0--0--0-0--0--0-|-0--0--0-0--0--0-|--0--0--0-0--0--0---0|
A |-0-|------------------|------------------|-----------------|---------------------|
D |-0-|------------------|------------------|-----------------|---------------------|

D |--------------|---------------|
A |--------------|---------------|
F#|-5-5-5--5-5-5-|-5-5-5--5-5-5--|
D |-5-5-5--5-5-5-|-5-5-5--5-5-5--|
A |-5-5-5--5-5-5-|-5-5-5--5-5-5--|
D |-5-5-5--5-5-5-|-5-5-5--5-5-5--|

D |-0-|------------------|------------------|-----------------|---------------------|
A |-0-|------------------|------------------|-----------------|---------------------|
F#|-0-|-10h11-10-8-10-10-|-10h11-10-8-10-10-|10h11-10-8-10-10-|-10h11-10-8-10-10--10|
D |-0-|--0--0--0-0--0--0-|--0--0--0-0--0--0-|-0--0--0-0--0--0-|--0--0--0-0--0--0---0|
A |-0-|------------------|------------------|-----------------|---------------------|
D |-0-|------------------|------------------|-----------------|---------------------|

D |--------------|---------------|
A |--------------|---------------|
F#|-5-5-5--5-5-5-|-5-5-5--5-5-5--|
D |-5-5-5--5-5-5-|-5-5-5--5-5-5--|
A |-5-5-5--5-5-5-|-5-5-5--5-5-5--|
D |-5-5-5--5-5-5-|-5-5-5--5-5-5--|

D |-0-|------------------|------------------|-----------------|---------------------|
A |-0-|------------------|------------------|-----------------|---------------------|
F#|-0-|-10h11-10-8-10-10-|-10h11-10-8-10-10-|10h11-10-8-10-10-|-10h11-10-8-10-10--10|
D |-0-|--0--0--0-0--0--0-|--0--0--0-0--0--0-|-0--0--0-0--0--0-|--0--0--0-0--0--0---0|
A |-0-|------------------|------------------|-----------------|---------------------|
D |-0-|------------------|------------------|-----------------|---------------------|

D |--------------|---------------|
A |--------------|---------------|
F#|-5-5-5--5-5-5-|-5-5-5--5-5-5--|
D |-5-5-5--5-5-5-|-5-5-5--5-5-5--|
A |-5-5-5--5-5-5-|-5-5-5--5-5-5--|
D |-5-5-5--5-5-5-|-5-5-5--5-5-5--|

D |-0-|------------------|------------------|-----------------|---------------------|
A |-0-|------------------|------------------|-----------------|---------------------|
F#|-0-|-10h11-10-8-10-10-|-10h11-10-8-10-10-|10h11-10-8-10-10-|-10h11-10-8-10-10--10|
D |-0-|--0--0--0-0--0--0-|--0--0--0-0--0--0-|-0--0--0-0--0--0-|--0--0--0-0--0--0---0|
A |-0-|------------------|------------------|-----------------|---------------------|
D |-0-|------------------|------------------|-----------------|---------------------|

D |--------------|---------------|
A |--------------|---------------|
F#|-5-5-5--5-5-5-|-5-5-5--5-5-5--|
D |-5-5-5--5-5-5-|-5-5-5--5-5-5--|
A |-5-5-5--5-5-5-|-5-5-5--5-5-5--|
D |-5-5-5--5-5-5-|-5-5-5--5-5-5--|

[Verse]
You dove and you float
In the afterglow
The night felt so right
Let you go
D |-0-------------|--------------|
A |-0-------------|--------------|
F#|-3-------------|-5------------|
D |-0-------------|-5------------|
A |-3-------------|-5------------|
D |-0-------------|-5------------|

[Chorus]
D |-0-|------------------|------------------|-----------------|---------------------|
A |-0-|------------------|------------------|-----------------|---------------------|
F#|-0-|-10h11-10-8-10-10-|-10h11-10-8-10-10-|10h11-10-8-10-10-|-10h11-10-8-10-10--10|
D |-0-|--0--0--0-0--0--0-|--0--0--0-0--0--0-|-0--0--0-0--0--0-|--0--0--0-0--0--0---0|
A |-0-|------------------|------------------|-----------------|---------------------|
D |-0-|------------------|------------------|-----------------|---------------------|

Breathing light
D |--------------|---------------|
A |--------------|---------------|
F#|-5-5-5--5-5-5-|-5-5-5--5-5-5--|
D |-5-5-5--5-5-5-|-5-5-5--5-5-5--|
A |-5-5-5--5-5-5-|-5-5-5--5-5-5--|
D |-5-5-5--5-5-5-|-5-5-5--5-5-5--|

D |-0-|------------------|------------------|-----------------|---------------------|
A |-0-|------------------|------------------|-----------------|---------------------|
F#|-0-|-10h11-10-8-10-10-|-10h11-10-8-10-10-|10h11-10-8-10-10-|-10h11-10-8-10-10--10|
D |-0-|--0--0--0-0--0--0-|--0--0--0-0--0--0-|-0--0--0-0--0--0-|--0--0--0-0--0--0---0|
A |-0-|------------------|------------------|-----------------|---------------------|
D |-0-|------------------|------------------|-----------------|---------------------|

Breathing light
D |--------------|---------------|
A |--------------|---------------|
F#|-5-5-5--5-5-5-|-5-5-5--5-5-5--|
D |-5-5-5--5-5-5-|-5-5-5--5-5-5--|
A |-5-5-5--5-5-5-|-5-5-5--5-5-5--|
D |-5-5-5--5-5-5-|-5-5-5--5-5-5--|

[Verse]
Who wouldve thought that I see you like this
You never told me bout the sights that I've missed
Now you're everywhere
D |-0-------------|--------------|
A |-0-------------|--------------|
F#|-3-------------|-5------------|
D |-X-------------|-5------------|
A |-4-------------|-5------------|
D |-0-------------|-5------------|

Damn all your faults, I can't see them no more
You bled right open, I can see to your core
And it's beautiful
D |-0-------------|--------------|
A |-0-------------|--------------|
F#|-3-------------|-5------------|
D |-X-------------|-5------------|
A |-4-------------|-5------------|
D |-0-------------|-5------------|

[Instrumental]
D |-0-|------------------|------------------|-----------------|---------------------|
A |-0-|------------------|------------------|-----------------|---------------------|
F#|-0-|-10h11-10-8-10-10-|-10h11-10-8-10-10-|10h11-10-8-10-10-|-10h11-10-8-10-10--10|
D |-0-|--0--0--0-0--0--0-|--0--0--0-0--0--0-|-0--0--0-0--0--0-|--0--0--0-0--0--0---0|
A |-0-|------------------|------------------|-----------------|---------------------|
D |-0-|------------------|------------------|-----------------|---------------------|

D |--------------|---------------|
A |--------------|---------------|
F#|-5-5-5--5-5-5-|-5-5-5--5-5-5--|
D |-5-5-5--5-5-5-|-5-5-5--5-5-5--|
A |-5-5-5--5-5-5-|-5-5-5--5-5-5--|
D |-5-5-5--5-5-5-|-5-5-5--5-5-5--|

D |-0-|------------------|------------------|-----------------|---------------------|
A |-0-|------------------|------------------|-----------------|---------------------|
F#|-0-|-10h11-10-8-10-10-|-10h11-10-8-10-10-|10h11-10-8-10-10-|-10h11-10-8-10-10--10|
D |-0-|--0--0--0-0--0--0-|--0--0--0-0--0--0-|-0--0--0-0--0--0-|--0--0--0-0--0--0---0|
A |-0-|------------------|------------------|-----------------|---------------------|
D |-0-|------------------|------------------|-----------------|---------------------|

D |--------------|---------------|
A |--------------|---------------|
F#|-5-5-5--5-5-5-|-5-5-5--5-5-5--|
D |-5-5-5--5-5-5-|-5-5-5--5-5-5--|
A |-5-5-5--5-5-5-|-5-5-5--5-5-5--|
D |-5-5-5--5-5-5-|-5-5-5--5-5-5--|

[Verse]
Shut down shut up
Twisted round
D |-0-------------|--------------|
A |-0-------------|--------------|
F#|-3-------------|-5------------|
D |-X-------------|-5------------|
A |-4-------------|-5------------|
D |-0-------------|-5------------|

Breathe in breathe out
Like watersound
D |-0-------------|--------------|
A |-0-------------|--------------|
F#|-3-------------|-5------------|
D |-X-------------|-5------------|
A |-4-------------|-5------------|
D |-0-------------|-5------------|

[Chorus]
D |-0-|------------------|------------------|-----------------|---------------------|
A |-0-|------------------|------------------|-----------------|---------------------|
F#|-0-|-10h11-10-8-10-10-|-10h11-10-8-10-10-|10h11-10-8-10-10-|-10h11-10-8-10-10--10|
D |-0-|--0--0--0-0--0--0-|--0--0--0-0--0--0-|-0--0--0-0--0--0-|--0--0--0-0--0--0---0|
A |-0-|------------------|------------------|-----------------|---------------------|
D |-0-|------------------|------------------|-----------------|---------------------|

Breathing light
D |--------------|---------------|
A |--------------|---------------|
F#|-5-5-5--5-5-5-|-5-5-5--5-5-5--|
D |-5-5-5--5-5-5-|-5-5-5--5-5-5--|
A |-5-5-5--5-5-5-|-5-5-5--5-5-5--|
D |-5-5-5--5-5-5-|-5-5-5--5-5-5--|

D |-0-|------------------|------------------|-----------------|---------------------|
A |-0-|------------------|------------------|-----------------|---------------------|
F#|-0-|-10h11-10-8-10-10-|-10h11-10-8-10-10-|10h11-10-8-10-10-|-10h11-10-8-10-10--10|
D |-0-|--0--0--0-0--0--0-|--0--0--0-0--0--0-|-0--0--0-0--0--0-|--0--0--0-0--0--0---0|
A |-0-|------------------|------------------|-----------------|---------------------|
D |-0-|------------------|------------------|-----------------|---------------------|

Breathing light
D |--------------|---------------|
A |--------------|---------------|
F#|-5-5-5--5-5-5-|-5-5-5--5-5-5--|
D |-5-5-5--5-5-5-|-5-5-5--5-5-5--|
A |-5-5-5--5-5-5-|-5-5-5--5-5-5--|
D |-5-5-5--5-5-5-|-5-5-5--5-5-5--|

[Verse]
Relief is painted on the eyes that I see
You changed you face before looking at me
Now I'm scared to death
D |-0-------------|--------------|
A |-0-------------|--------------|
F#|-3-------------|-5------------|
D |-X-------------|-5------------|
A |-4-------------|-5------------|
D |-0-------------|-5------------|

My vision blurred, now I can't see what's right
Like counting stars on an Aurora night-
It don't matter much...

You're faceless anyhow
D |-0-------------|------------|--0-|
A |-0-------------|------------|--0-|
F#|-3-------------|-5----------|--3-|
D |-X-------------|-5----------|--0-|
A |-4-------------|-5----------|--3-|
D |-0-------------|-5----------|--0-|

[Outro]
Leaving them to comprehend
You tie a rope to the eternal blue
D |-4----2----5-----4---|-4----x----x----x-|
A |-0----0----0-----0---|-0----7----5----7-|
F#|-0----0----0-----0---|-0----0----0----0-|
D |-4----2----5-----4---|-x----x----x----x-|
A |-0----0----0-----0---|-5----5----5----5-|
D |-0----0----0-----0---|-0----0----0----0-|

D |-0-|------------------|------------------|-----------------|---------------------|
A |-0-|------------------|------------------|-----------------|---------------------|
F#|-0-|-10h11-10-8-10-10-|-10h11-10-8-10-10-|10h11-10-8-10-10-|-10h11-10-8-10-10--10|
D |-0-|--0--0--0-0--0--0-|--0--0--0-0--0--0-|-0--0--0-0--0--0-|--0--0--0-0--0--0---0|
A |-0-|------------------|------------------|-----------------|---------------------|
D |-0-|------------------|------------------|-----------------|---------------------|

D |--------------|---------------|
A |--------------|---------------|
F#|-5-5-5--5-5-5-|-5-5-5--5-5-5--|
D |-5-5-5--5-5-5-|-5-5-5--5-5-5--|
A |-5-5-5--5-5-5-|-5-5-5--5-5-5--|
D |-5-5-5--5-5-5-|-5-5-5--5-5-5--|

D |-0-|------------------|------------------|-----------------|---------------------|
A |-0-|------------------|------------------|-----------------|---------------------|
F#|-0-|-10h11-10-8-10-10-|-10h11-10-8-10-10-|10h11-10-8-10-10-|-10h11-10-8-10-10--10|
D |-0-|--0--0--0-0--0--0-|--0--0--0-0--0--0-|-0--0--0-0--0--0-|--0--0--0-0--0--0---0|
A |-0-|------------------|------------------|-----------------|---------------------|
D |-0-|------------------|------------------|-----------------|---------------------|

D |-------|
A |-------|
F#|-5-5-5-|
D |-5-5-5-|
A |-5-5-5-|
D |-5-5-5-|


************************************

| h  Hammer-on
| x  Dead note

************************************

            
            
Suggest correction
Creating personal tab
Creating personal tab
You can edit any tab online and save it as your Personal.

You can edit, replace or remove any tab part or add personal notes – all changes will be seen only by you.

Personal tabs can be accessed anytime from any device, even offline.
Learn more »
Give kudos to tab author, rate the tab!
1 2 3 4 5
comments
print report bad tab
guest
You may want to rate the tab now too:
select rating
Wanna post a correction for this tab? Suggest correction