Oops, an error
Loading. Please wait.

All The Way From Memphis bass

349 views 9 this week
no commentswrite comment
1 2 3 4 5
2 more votes to show rating
add to favorites
×
Save as Personal and add changes to this tab that will be seen only by you. Learn more ›
×
You can save this tab as Personal to edit and correct it or add notes. All changes will be seen only by you. Learn more »
launch autoscroll
font size
0
reset
guitar tuner
edit
Autoscroll
slow
fast
+/-
esc
set tempo
stop
Author
Difficulty
All The Way From Memphis
Single by Mott The Hoople released in 1973 reached number 10 UK.
Bass performance Pete Watts. Tab by bass50611. Although I have written 
Words to Verses 1 & 2 use the same format for Verses 3 & 4.
As per original single recording. Comments at bass254@btinternet.com 

Intro:
G|-------|--------------------------------------------------
D|-PIANO-|--------------------------------------------------
A|-START-|--------------------------------------------------
E|-------|-4--4--4--4/9--9--9--9\4--4--4--4/9--9--9--9\4--4-

                   (Break)                                  .
G|------------------------------------------------------------
D|------------------------------------------------------------
A|------------------9-----------------------9---9---9---9---8-
E|-4--4/9--9--9--9------------9---9---9---9-------------------

Verse 1:
    ‘Forgot my six stringed razor, hit the sky...half way to Memphis
G|------------------------------------------------------------------
D|------------------------------------------------------------------
A|-----------------9---------------10------11---13-----------11-----
E|------------------------------------------------------------------

  ‘fore I realized          .
G|----------------------------
D|----------------------------
A|---------9--8--6--4--4----8-
E|----------------------------

Verse 2:
Well I rang the information, my axe was cold...they said she rides
G|----------------------------------------------------------------
D|----------------------------------------------------------------
A|---------------9----------10----------11------13-----------11---
E|----------------------------------------------------------------

The Train to Oreoles
G|-------------------------------------
D|-------------------------------------
A|-----------9-8-9-8-9-8-9-8-9-8-9-8-9-
E|-------------------------------------

Chorus 1:
G|------------------------------------------------------------------
D|------------------------------------------------------------------
A|------------------------------------------------------------------
E|-4--4--4--4/9--9--9--9\4--4--4--4/9--9--9--9\4--4--4—4/9--9--9--9-

G|--------------------------------------
D|--------------------------------------
A|-9-9--8-8--6-6--4-4--3-3--1-1---------
E|-----------------------------4-4--2-2-

Solo 1:
G|-----------------------------
D|-----------------------------
A|---------------9---9---9---9-
E|-9---9---9---9---------------

For Verses 3 & 4 Use Same Format As Verses 1 & 2:

Chorus 2:
G|--------------------------------------------------------------------
D|--------------------------------------------------------------------
A|--------------------------------------------------------------------
E|-9\4--4--4--4/9--9--9--9\4--4--4--4/9--9--9--9\4--4--4—4/9--9--9--9-

G|--------------------------------------
D|--------------------------------------
A|-9-9--8-8--6-6--4-4--3-3--1-1---------
E|-----------------------------4-4--2-2-

Solo 2:
G|------------------------------------------------------------
D|------------------------------------------------------------
A|---------------9---9---9---9--------------------------------
E|-9---9---9---9----------------9---9---9---9---2---2---2---2-

Chorus 3:                                                          (Break)
G|---------------------------------------------------------------------
D|---------------------------------------------------------------------
A|-------------------------------------------------------------------9-
E|-4--4--4--4/9--9--9--9\4--4--4--4/9--9--9--9\4--4--4—4/9--9--9--9----

Chorus 4:
G|--------------------------------------------------------------------
D|--------------------------------------------------------------------
A|--------------------------------------------------------------------
E|-9\4--4--4--4/9--9--9--9\4--4--4--4/9--9--9--9\4--4--4—4/9--9--9--9-

G|--------------------------------------
D|--------------------------------------
A|-9-9--8-8--6-6--4-4--3-3--1-1---------
E|-----------------------------4-4--2-2-

G|------------------------------------------------------------------
D|------------------------------------------------------------------
A|------------------------------------------------------------------
E|-4--4--4--4/9--9--9--9\4--4--4--4/9--9--9--9\4--4--4—4/9--9--9--9-

G|--------------------------------------
D|--------------------------------------
A|-9-9--8-8--6-6--4-4--3-3--1-1---------
E|-----------------------------4-4--2-2-

Outro:                                          (Song Fades Out)
G|--------------------------------------------------------------
D|--------------------------------------------------------------
A|----------------------------------------------7-9---9---9---9-
E|-9---9---9---9---2---2---2---2---9---9---9---9----------------

            
            
Suggest correction
Creating personal tab
Creating personal tab
You can edit any tab online and save it as your Personal.

You can edit, replace or remove any tab part or add personal notes – all changes will be seen only by you.

Personal tabs can be accessed anytime from any device, even offline.
Learn more »
Give kudos to tab author, rate the tab!
1 2 3 4 5
comments
print report bad tab
guest
You may want to rate the tab now too:
select rating
Wanna post a correction for this tab? Suggest correction