Oops, an error
Loading. Please wait.

Through The Trees Part 2 bass

58 views 1 this week
no commentswrite comment
1 2 3 4 5
3 more votes to show rating
add to favorites
×
Save as Personal and add changes to this tab that will be seen only by you. Learn more ›
×
You can save this tab as Personal to edit and correct it or add notes. All changes will be seen only by you. Learn more »
launch autoscroll
font size
0
reset
guitar tuner
edit
Autoscroll
slow
fast
+/-
esc
set tempo
stop
Author
Difficulty
About this tab version
There is no bass tab and ug could use more phil elverum. Was this info helpful? Yes No
Consider this my tribute to Phil. R.I.P. Geneviève Castrée :(
After hearing the latest album I thought i'd listen to one of my favorite songs by him,
and i wanted to make a cover and I might as well write down what I play.
Bass enters song at 2:04.

[Verse]
G|---------------------------------------------------------------------------|
D|---6---------------------------4---------------6---------------------------|
A|-------------4-------------------------------------------------------------|
E|---------------------------------------------------------------------------|
     Daaaark smoke fills the air, some from the fire  in my house, some from me
G|---------------------------------------------------------------------------|
D|---7-----------9----6----------------------------4----------------6--------|
A|-------------------------------4-------------------------------------------|
E|---------------------------------------------------------------------------|
   driving around     I     can see the lights of town through the trees
G|---------------------------------------------------------------------------|
D|--------------9-------------7---------------9---6--------------------------|
A|--------------------------------------------------------------------4------|
E|---------------------------------------------------------------------------|
   on the ridge    on my way home in the dark        meant all my songs
G|---------------------------------------------------------------------------|
D|-----------6----------------------------------6----------------------------|
A|---------------------------------------------------------------------2---4-|
E|---------------------------------------------------------------------------|
   not as a picture of the woods but just to remind myself that i breifly live
G|---------------------------------------------------------------------------|
D|----------------------------------------------6-------------------4--------|
A|---4-----------4----------4------------------------------------------------|
E|---------------------------------------------------------------------------|
     1  2  3  4  1  2  3  4   the gleaming stone  the moon in the sky at noon
G|---------------------------------------------------------------------------|
D|---------------6--------------------------7---------6----------------------|
A|-------------------------------------------------------------4-------------|
E|---------------------------------------------------------------------------|
    there is no other world and there has never been  I still walk, living
G|----------------------------------------------------4----------------------|
D|----4-------------------6---------------------------------7----------------|
A|---------------------------------------------------------------------------|
E|---------------------------------------------------------------------------|
    sleeping life in the real world of clouds clawing for meaning
G|---------------------------------------------------------------------------|
D|----6-------------------------------4--------------------6-----------------|
A|---------------------4-----------------------------------------------------|
E|---------------------------------------------------------------------------|
    still when i see branches in the wind the tumultuous place where i live
G|---4--------------------------4--------------------------------------------|
D|--------------------7---------------------------2---------------------6----|
A|------------------------------------4-------4-----------------4------------|
E|---------------------------------------------------------------------------|
         calls out revealing          1 2 3 4 1 2 3 4  can you see the river
G|---------------------------------------------------------------------------|
D|-----------4-------------------6----------------------------9----------7---|
A|---------------------------------------------------------------------------|
E|---------------------------------------------------------------------------|
   in the branches know that it means you will die and that peices are churning
G|---------------------------------------------------------------------------|
D|----------2-------------------------4--------------------------6-----------|
A|--------------------4------------------------------------------------------|
E|---------------------------------------------------------------------------|
   can you find the wildness in your body and walk through the store after work
G|---------------------------------------------------------------------------|
D|--------------------------------------------4------------------------------|
A|-------------4-----4-------------------------------------------------------|
E|---------------------------------------------------------------------------|
   holding it high     I've held aloft some delusions ... 
G|---------------------------------------------------------------------------|
D|---------------------------------------------------------------------------|  really really soft
A|-------2---------------------------/7--------------------------------------|
E|------------------------------------------4--------------------------------|
   from now on let me be perfectly clear  theres no part of the world more 
G|---------------------------------------------------------------------------|
D|---------------------------------------------------------------------------| also really really soft
A|------------------------/7------------------------2------------------------|
E|--2------------------------------------------------------------------------|
     meaningful and raw impermanence echoes in the sky
G|---------------------------------------------------------------------------|
D|---------------------------------------------------------------------------| crescendo here
A|--4---------------4---------------4---------------4------------------------|
E|---------------------------------------------------------------------------|
    1 2 3 4 1 2 3 4 1 2 3 4 1 2 3 4 1 2 3 4 1 2 3 4 1 2 3 4 1 2 3 4
G|---------------------------------------------------------------------------|
D|--6----------------4------------------6--------6------9----7---------------|
A|------------4--------------------------------------------------------------|
E|---------------------------------------------------------------------------|
    there is either no end or constant simultanious end and beginning
G|---------------------------------------------------------------------------|
D|-9-----------6-------4-----------7---6-------------9-7---------------------|
A|-----4---------------------------------------------------------------------|
E|---------------------------------------------------------------------------|
...3 4 1 2 3 4 1 2 3 4 1 2 3 4 1 2 3 4 1 2 3 4 1 2 3 4 1 2 3 4 1 2 3 4
G|---------------------------------------------------------------------------|
D|--6----------------------4--------------7--6----------------9--------------|
A|------------------4-----------------------------------------------------4--|
E|---------------------------------------------------------------------------|
      a pile of trash the fog on the hill   standing in the parking lot squinting
hope this helps.

            
            
Suggest correction
Creating personal tab
Creating personal tab
You can edit any tab online and save it as your Personal.

You can edit, replace or remove any tab part or add personal notes – all changes will be seen only by you.

Personal tabs can be accessed anytime from any device, even offline.
Learn more »
Give kudos to tab author, rate the tab!
1 2 3 4 5
comments
print report bad tab
guest
You may want to rate the tab now too:
select rating
Wanna post a correction for this tab? Suggest correction