Oops, an error
Loading. Please wait.

Through The Trees Part 2 solo tab

40 views 1 this week
no commentswrite comment
1 2 3 4 5
3 more votes to show rating
add to favorites
×
Save as Personal and add changes to this tab that will be seen only by you. Learn more ›
×
You can save this tab as Personal to edit and correct it or add notes. All changes will be seen only by you. Learn more »
launch autoscroll
font size
0
reset
how to read this tab
guitar tuner
edit
Autoscroll
slow
fast
+/-
esc
set tempo
stop
Author
Difficulty
About this tab version
This is the first one on the site. Was this info helpful? Yes No
another phil tab from me. no one has examined the electric part yet so here we go
lots of delay and reverb
e|---------------------------------------------------------------------------|
B|---------------------------------------------------------------------------|
G|-----------------------6---------------------------------------4-----------|
D|---------------6-----------------------------------------------------------|
A|-------------7-------------------------------------------------------------|
E|-----------9---------------------------------------------------------------|

breifly live...             the gleaming stone the moon in the sky at noon
e|---------------------------------------------------------------------------|
B|---------------------------------------------------------------------------|
G|-----------4--------------------------1---------4--------------------------|
D|-----------------------------------------------------------------------4---|
A|---------------------------------------------------------------------------|
E|---------------------------------------------------------------------------|

there is no other world and there has never been  i still walk living sleeping
e|---------------------------------------------------------------------------|
B|---------------------------------------------------------------------------|
G|------------4------------------------6-------2--------6--------------------|
D|---------------------------------------------------------------------------|
A|---------------------------------------------------------------------------|
E|---------------------------------------------------------------------------|

life in the real world of clouds clawing for meaning  still i see branches 
e|---------------------------------------------------------------------------|
B|---------------------------------------------------------------------------|
G|--------4-------------------4------------------------6---2-----------------|
D|---------------------------------------------------------------------------|
A|---------------------------------------------------------------------------|
E|---------------------------------------------------------------------------|

in the wind the tumultuous place where i live calls out revealing
e|---------------------------------------------------------------------------|
B|---------------------------------------------------------------------------|
G|--------------------------------6---------------------4--------------------|
D|--------6----------9-------------------------------------------------------|
A|-----7----------7----------------------------------------------------------|
E|--9----------9-------------------------------------------------------------|

                         can you see the river and the branches and know that
e|---------------------------------------------------------------------------|
B|---------------------------------------------------------------------------|
G|---4-------------------------------6------2---------------6----------------|
D|---------------------------------------------------------------------------|
A|---------------------------------------------------------------------------|
E|---------------------------------------------------------------------------|

it means you will die and that peices are churning can you find the wildness 
e|---------------------------------------------------------------------------|
B|---------------------------------------------------------------------------|
G|-------4--------------------------4----------------------------------------|
D|---------------------------------------------------------------------------|
A|----------------------------------------------------------------4----------|
E|---------------------------------------------------------------------------|

in your body and walk through the store after work holding it high
e|---------------------------------------------------------------------------|
B|---------------------------------------------------------------------------|
G|--6------------------------4-----------------------------------------------|
D|---------------------------------------------------------------------------|
A|---------------------------------------------------------------------------|
E|---------------------------------------------------------------------------|

       i've held aloft some delusions ...
e|---------------------------------------------------------------------------|
B|---------------------------------------------------------------------------|
G|---6---------------4-----------------8--------------6-------2--------------|
D|---------------------------------------------------------------------------|
A|---------------------------------------------------------------------------|
E|---------------------------------------------------------------------------|

   there is either no end or constant simultanious end and beginning
e|---------------------------------------------------------------------------|
B|---------------------------------------------------------------------------|
G|---------------------------------------------------------------------------|
D|---------------------------------------------------------------------------|
A|---------------------------------------------------------------------------|
E|---------------------------------------------------------------------------|

e|---------------------------------------------------------------------------|
B|---------------------------------------------------------------------------|
G|------------------------4--------2--------6-----------------------4--------|
D|--------6-----4------------------------------------------------------------|
A|-----7---------------------------------------------------------------------|
E|--9------------------------------------------------------------------------|

                                              a pile of trash, the fog on the hill
e|---------------------------------------------------------------------------|
B|---------------------------------------------------------------------------|
G|--4------------------------------------------------------------------------|
D|---------------------------------------------------------------------------|
A|-------------------------------4-------------------------------------------|
E|---------------------------------------------------------------------------|
  standing in the parking lot squinting.
Suggest correction
Creating personal tab
Creating personal tab
You can edit any tab online and save it as your Personal.

You can edit, replace or remove any tab part or add personal notes – all changes will be seen only by you.

Personal tabs can be accessed anytime from any device, even offline.
Learn more »
Give kudos to tab author, rate the tab!
1 2 3 4 5
comments
print report bad tab
guest
You may want to rate the tab now too:
select rating
Wanna post a correction for this tab? Suggest correction